Song name
# A B C D E F G H I J K L M N O P Q R S T U V W X Y Z

Elvis Presley - Surrender chords

Highlighted       Show chord diagrams
---------------------------------------------------------------------------
		Surrender - Elvis Presley
---------------------------------------------------------------------------
Tabbed by: maguri
Tuning: Standard

Elvis Presley
Surrender (1960)
(Mort Shuman/Doc Pomus)

Now on: "The Essential 60's Masters I [Disc 1]", "30 #1 Hits" etc.

The original recording is somwhere between D and Eb. I put it down in Am, 
so you can choose where to put the capo: 5th fret (=D) or 6th (=Eb).

---------------------------------------------------------------------------

CHORDS
            e-B-G-D-A-E
Am          x-1-2-2-0-x
Am5+(= F/A) x-1-2-3-0-x
Am6         x-1-2-4-0-x
A6          0-2-2-4-0-x
C#7         x-1-4-3-4-x

---------------------------------------------------------------------------

INTRO

  Am    Am5+       Am6   Am5+
e|x-----x---------|x-----x---------|
B|1-----1---------|1-----1---------|
G|2-----2---------|2-----2---------|
D|2-----3---------|4-----3---------|
A|0-----0---------|0-----0---------|
E|----------------|----------------|
 (1 + 2 + 3 + 4 +  1 + 2 + 3 + 4 + )


---------------------------------------------------------------------------

Capo 5th fret

INTRO

| Am Am5+ | Am6 Am5+ |
| Am Am5+ | Am6 Am5+ |
| Am Am5+ | Am6 Am5+ |


Am Am5+      Am6     Am5+       Am
     When we kiss my heart's on fire
Dm                         Am
  Burning with a strange desire
Dm                        Am
  And I know, each time I kiss you
E(7)                        Am
  That your heart's on fire too


[tacet]                      Bm    
  So, my darling, please, surrender
E                           A(6)
  All your love so warm and tender
A                       Bm
  Let me hold you in my arms, dear
E                               A
  While the moon shines bright above


A                             Bm     
  All the stars will tell the story
E        C#7               F#m
  Of our love and all it's glory
Dm                          Am 
  Let us take this night of magic
E(7)                     Am
  And make it a night of love


[tacet]               Bm
  Won't you please surrender to me
E                             A
   Your lips, your arms, your heart, dear
Dm           Am
   Be mine forever
E              |: Am Am5+ | Am6 Am5+ :|
  Be mine ... tonight      [repeat intro riff and fade]

Tap to rate this tab
 
# A B C D E F G H I J K L M N O P Q R S T U V W X Y Z