Song name
# A B C D E F G H I J K L M N O P Q R S T U V W X Y Z

Embrace - Someday chords

Highlighted       Show chord diagrams
----------------------------------------------------------------
Someday - Out Of Nothing - Embrace(2004)
----------------------------------------------------------------
Tom Wilson
Kevin Firman
Grant Cameron
Colin Ramsay - Mad solo
James Newton - Correct tuning

Rev. 1.0 - 11/9/2004 - Just the basics.
Rev. 2.0 - 13/10/2004 - chords for alternate tuning

Notes - tune all strings down a tone, so you're using DGCFAD.

From Happy And Lost -- http://www.happyandlost.co.uk

----------------------------------------------------------------

Verse one - D G C

----------------------------------------------------------------

D       G             C             D         G
Someday, you're gonna see the way I see things

      C                D
Break out the box they keep you sealed in

G        C            D
Someday, you find the real thing

Someday, you're gonna feel the isolation
'cause no one wants you with them
Someday, I'm gonna bring you back
and you won't know how to act

----------------------------------------------------------------

Bridge - D G C

----------------------------------------------------------------

D                      G       C        D
The world you think is safe is changing fast

            G             C         D
and all the runaways will run their last.

            G         C          D
If you turn away, you can't turn back

                     G    C       
The time has come to make way


----------------------------------------------------------------

Chorus - D C G

----------------------------------------------------------------

       D      
And it just don't matter too much to me

   C
If you can't run 'cause I will carry

G                              D
You up on my back until you're safe

    C                            G
And you will feel the way I feel someday

----------------------------------------------------------------

Verse two - D G C

----------------------------------------------------------------

Someday, you're gonna feel the way I'm feeling
But all the bad you think I'm suffering, won't break
It only heals me

----------------------------------------------------------------

Chorus - D C G

----------------------------------------------------------------

And it just don't matter too much to me
If you can't run 'cause I will carry
You upon my back until you're safe
And you will feel the way I feel someday

For every stone you throw you'll carry
A million more and you'll be sorry
No one will escape who knows the way
And we will not sow as we reap someday

----------------------------------------------------------------

Middle eight - D G C

----------------------------------------------------------------

D                G        C 
A light is gonna shine on you and I

D                G        C
A light is gonna shine on you and I

----------------------------------------------------------------

Chorus - D C G

----------------------------------------------------------------

And it just don't matter too much to me
If you can't run 'cause I will carry
You upon my back until you're safe
And you will feel the way I feel someday

For every stone you throw you'll carry
A million more and you'll be sorry
No one will escape who knows the way
And we will not sow as we reap someday

----------------------------------------------------------------

Verse - D G C

----------------------------------------------------------------

Someday, you're gonna see the way I see things
Break out the box they keep you sealed in
Someday, we're gonna bring you back....

[yeah]

----------------------------------------------------------------

Outro - D G C in 3/4 time

----------------------------------------------------------------

Mad solo tabbed by Ramsay

E|--------------------------------------------------------------------------------------|
B|3---5---6---8---10---12----13----15----15--15-15-15-13-12-13--13-13-12-10-12-12-12-12~|
G|--2---4---5---7----9----11----12----14------------------------------------------------|
D|--------------------------------------------------------------------------------------|
A|--------------------------------------------------------------------------------------|
E|--------------------------------------------------------------------------------------|

E|---------------------------------------------------------|
B|-------------------------------------8---8---8-----------|
G|12-12-12-11-9--------------------------7---7---5-5h7p5-4-|
D|--------------10-10-10h12p10-9-7-7-7---------------------|
A|---------------------------------------------------------|
E|---------------------------------------------------------|

Now, a light is gonna shine - on you and I
A light is gonna shine
Yeah, a light is gonna shine
Tap to rate this tab
# A B C D E F G H I J K L M N O P Q R S T U V W X Y Z