Song name
# A B C D E F G H I J K L M N O P Q R S T U V W X Y Z

Embrace - Fireworks tab

----------------------------------------------------------------------------
			     FIREWORKS - Embrace
----------------------------------------------------------------------------

Tabbed by: Iain Russell
Email:

Tuning: Standard

There are two solos in this song - one after the first verse and chorus - and a
closing solo after the second chorus.  They are similar but different.
I think this is pretty close.


First Solo

e|-----------------0-----0-2-----------------------------------------------|
B|---0h1-0---3-3-3-----------3-3-3-3---------------------------------------|
G|-0-------0---------0-2-------------2---0-2-------------------------------|
D|-------------------------------------4-----------------------------------|
A|-------------------------------------------------------------------------|
E|-------------------------------------------------------------------------|



Closing solo

e|-----------------0-----0-2---------------------------0-0-2---------------|
B|---0h1-0---3-3-3-----------3-----3-1-0-0-0-0-----0-0-------3-------------|
G|-0-------0---------0-2-------0-2-------------2-0-------------0-2---------|
D|-------------------------------------------------------------------------|
A|-------------------------------------------------------------------------|
E|-------------------------------------------------------------------------|

e|-------------------------------------------------3-----------------------|
B|-3-1-0-3-1-0---0---0-3-0-1-0---0---0-3-0-1-0-----------------------------|
G|-------------2---0-----------2---0-----------0-2-------------------------|
D|-------------------------------------------------------------------------|
A|-------------------------------------------------------------------------|
E|-------------------------------------------------------------------------|

Need to listen to it for timing -  Good luck!
Tap to rate this tab
 
# A B C D E F G H I J K L M N O P Q R S T U V W X Y Z