Song name
# A B C D E F G H I J K L M N O P Q R S T U V W X Y Z

Emerson Lake And Palmer - From The Beginning tab

-##
First I must give credit to Glen Macon (macon@cbmvax.commodore.com) for
posting the original .crd text. Here is my version of the song (with TABs
for the intro). I have corrected some names of chords, corrected some
chords, but please Glen, this isn't to "flame you", just trying to be
helpful (it's a great song...). Any other ELP TABs or CRDs around,
anyone?

---------------------------------------------------------------------------

Title  : From the Beginning
Artist : Emerson,Lake and Palmer
TABs   : Jan Kalin
CRDs   : Glen Macon & Jan Kalin


                Symbols:


	        H       hammer-on
		P	pull-off  
		B	bend (upto note)
		S	slide
		[12]	touch the string ([12] is one octave higher than 0)


			  S           H   P	  H H	    S
E ||----------[12]-|-10-12-(7)-7-|-5-7-8-7-0-0-|-0-2-3-|---3-(8)-8-|
B ||------[12]-----|-------------|-------------|-------|-----------|
G ||--[12]---------|-------------|-------------|-------|--0--------|
D ||---------------|-------------|-------------|-------|-----------|
A ||---------------|-------------|-------------|-------|-0---------|
E ||-0-------------|-------------|-------------|-------|-----------|

     
E ||---------|----------------------|------------------------|
B ||---------|----10-10-----10-10---|----11-11-----11-11-----|
G ||----12-9-|--11--9--11-11--9--11-|--10--9--10-10--9--10---|
D ||--10--9--|-0---------0----------|-0---------0------------|
A ||-0-------|----------------------|------------------------|
E ||---------|----------------------|------------------------|

					   Am9....
E ||------------------|-------|-------------0-
B ||---6-5-6---6-5-6--|---6-5-|-------------0-....
G ||--5-----5-5-----5-|--5----|-------------5-
D ||-0-------0--------|-0-----|------0------5-....
A ||------------------|-------|--B-----B---0--
E ||------------------|-------|-2-(3)-2-(3)---....
 





     Am9            Em11           Dm7            Dm6       
  E A D G B E    E A D G B E    E A D G B E    E A D G B E 
  -----------    -----------    x----------    x---------- 
1 | | | | | |    | | | | | |    | | | | | |    | | | | | | 1
2 | | | | | |    | | | | | |    | | | | | |    | | | | | | 2
3 | | | | | |    | | | | o |    | | | | | |    | o-o-o-o-o 3<-- barre
4 | | | | | |    | | o | | |    | | | | | |    | | | o | | 4
5 | | o o | |    | | | | | |    | | | o | o    | o | | | o 5
  | | | | | |    | | | | | |    | | | | o |    | | | | | | 

     G              Fmaj9          Cmaj9          E7sus4(Add F)
  E A D G B E    E A D G B E    E A D G B E    E A D G B E 
  x-x--------    x-x--------    x----------    -----------
1 | | | | | |    | | | | o |    | | | | o |    | | | | | | 1
2 | | | | | |    | | | o | |    | o | | | |    | o | o | | 2
3 | | | | o o    | | o | | o    | | | | | |    | | o | o | 3
4 | | | o | |    | | | | | |    | | | | | |    | | | | | | 4
5 | | o | | |    | | | | | |    | | | | | |    | | | | | | 5
  | | | | | |    | | | | | |    | | | | | |    | | | | | | 

                                                                     



Am9                Em11
It might have been things I did

C   Cmaj9    Fmaj9   G                 Dm7
But don't be unkind, it don't mean I'm blind

Am9         Em11
But after a thing or two

C          Cmaj9    Fmaj9  G              Dm7
I think of lying in bed, I shouldn't have said

    Am9 Em11  Am9 Em11

             Dm7 Dm6
You see it's all clear

         Dm7         E7sus4(Add F)
You were meant to be here

             Am9         Em11
From the beginning


Am9          Em11
Well maybe I might have changed

C   Cmaj9       F      G                   Dm7
And not been so cruel, not been such a fool

Am9              Em11
But after what's done is done

C Cmaj9      F       G                       Dm7
I just can't recall, it doesn't matter at all


    Am9 Em11  Am9 Em11

             Dm7 Dm6
You see it's all clear

         Dm7         E7sus4(Add F)
You were meant to be here

             Am9         Em11
From the beginning


**********************************************
|   Jan  (pronounced Yan, 'a' as in 'far')   |
******************************************************************************
|   X.400     :  C=si;ADMD=mail;PRMD=ac;O=ijs;GIV=Jan;SUR=Kalin;  SEX=male   |
|   RFC-822   :  Jan.Kalin@IJS.SI                                            |
|   SnailMail :  Slomskova 19, 61000 Ljubljana, SLOVENIA                     |
|   VoxPhone  :  +386 61 320910                                              |
******************************************************************************

Date: Sat, 16 Dec 1995 18:10:07 -0800
From: dlieb@ix.netcom.com (DAVE LIEBAU )
Subject: TAB: From The Beginning; ELP


      Harm.                                                           
|------12--10--12\7--|--5--7h8p7--0-----0h2h3--|--------3/8--8--------
|------12------------|-------------------------|----------------------
|------12------------|-------------------------|-----0----------------
|--------------------|-------------------------|----------------------
|--------------------|-------------------------|--0-------------------
|--0-----------------|-------------------------|----------------------
                                                                      

                                                                      
~~~--|----------------0--|-------------0---------------------0--------
-----|-------------0-----|---------10-----10-------------12-----10----
-----|---------12--------|-----11-------------11-----11---------------
-----|-----10------------|--0---------------------0-------------------
-----|--0----------------|--------------------------------------------
-----|-------------------|--------------------------------------------
                                                                      

                                                                      
----|-------------0---------------------0---------|-----------0-------
----|---------11-----11-------------11-----11-----|--------6-----6----
11--|-----10-------------10-----10-------------10\|-----5-------------
----|--0---------------------0--------------------|--0----------------
----|---------------------------------------------|-------------------
----|---------------------------------------------|-------------------
                                                                      

                                       1/2    1/2                     
------------0--------|--0----------------------------||---------------
---------6-----6-----|--6----------------------------||---------------
5-----5-----------5--|--5----------------------------||---------------
---0-----------------|--0------------------0---------||---------------
---------------------|----------------------------0--||--(0)----------
---------------------|------------------2------2-----||---------------
                                                                      

                    P.M.                     P.M.                     
0------------0---|------------------------|---------0---------0-------
0------------0---|---------3-----------3--|---------0---------0-------
12-----------12--|---------0-----------0--|---------12--------12------
10-----x-----10--|---------4-----x-----4--|---------10-----x--10------
-----------------|---0--------------------|---0-----------------------
-----------------|------------------------|---------------------------
                                                                      

   P.M.                      P.M        It might have_etc.            
|------------------------||---------0-------------0------|------------
|---------3-----------3--||---------0-------------0------|------------
|---------0-----------0--||---------12------------12-----|------------
|---------4-----x-----4--||---------10------x-----10-----|------------
|---0--------------------||---0--------------------------|------------
|------------------------||------------------------------|------------
                                                                      

P.M.                     let ring     but don't be unkind_etc.        
----------------------|----------------------------|-----------3------
-------3-----------3--|---------5------------3-----|--------1---------
-------0-----------0--|----------------------------|-----2------------
-------4-----x-----4--|------5------------5--------|--3---------------
-0--------------------|---3--------3---2--------2--|------------------
----------------------|----------------------------|------------------
                                                                      

                                                                      
------------|-----------3--------------|-----------5------------------
1-----------|--------3-----3-----------|--------6-----6---------------
---2-----2--|-----4-----------4-----4--|-----5-----------5-----5------
------3-----|--5-----------------5-----|--0-----------------0---------
------------|--------------------------|------------------------------
------------|--------------------------|------------------------------
                                                                      

                  1/2          1/2          etc.                      
|----------------------------------------|---------------|------------
|--------6--0----------------------------|---------------|------------
|-----5------------------0---------------|---------------|------------
|--0-------------------------------------|---------------|------------
|-------------------------------------0--|---------------|------------
|------------------2------------2--------|---------------|------------
                                                                      

You see it's all___                           clear                   
----------------------------------5-----|------5-----|----------------
----------------------------------6-----|------3-----|----------------
----------------------------------5-----|------4-----|----------------
----------------------------------0-----|------0-----|----------------
----------------------------------------|------------|----------------
----------------------------------------|------------|----------------
                                                                      

You were meant                 to be           here                   
-------------------5-----|--------------------------------------------
-------------------6-----|--------------------------------------------
-------------------5-----|--------------------------------------------
-------------------0-----|--------------------------------------------
-------------------------|-------------------------------------2------
-------------------------|----------------------------------0---------
                                                                      

               1/2          1/2          etc............              
---------0--|-------------------------|------------------------||-----
------3-----|-------------------------|------------------------||-----
---2--------|-------------------------|------------------------||-----
3-----------|---------0---------------|------------------------||-----
------------|----------------------0--|------------------------||-----
------------|---2------------2--------|------------------------||-----
Tap to rate this tab
# A B C D E F G H I J K L M N O P Q R S T U V W X Y Z