Song name
# A B C D E F G H I J K L M N O P Q R S T U V W X Y Z

Emi Fujita - Down By The Salley Gardens chords

Highlighted       Show chord diagrams
-------------------------------------------------------------------------------
                             DOWN BY THE SALLEY GARDENS - Emi Fujita
-------------------------------------------------------------------------------
Tabbed by: asd20227
Tuning: Standard
Capo: 3


Intro:
         G         D/F#      C         G/B       C
e|-----|---------|---------|-0-------|-----3---|-0-------|
B|-----|-0-------|-----0-3-|-----1-3-|-------3-|-----3-0-|
G|-0-2-|-----2-0-|-2-------|---0-----|---0-----|---0-----|
D|-----|---0-----|---0-----|---------|---------|---------|
A|-----|---------|---------|-3-------|-2-------|-3-------|
E|-----|-3-------|-2-------|---------|---------|---------|

   D/F#      C
e|-------3-|-------------|
B|-----0-3-|-------0h1-0-|
G|-2-----0-|-----0-------|
D|---0-----|---0---------|
A|---------|-------------|
E|-2-------|-3-----------|

     G      D      C  G/B     C        D     G
Down by the salley gardens my love and I did meet;

    G          Bm7    C  G/B       C      D          G  
She passed the salley gardens with little snow-white feet.

    Em     C         Bm           C           D      G
She bid me take love easy, as the leaves grow on the tree;

    G        Bm7       C  G/B        C         D    G
But I, being young and foolish, with her would not agree.


(Interlude same as Intro)

     G     D      C G/B    C        D     G
In a field by the river my love and I did stand,

    G     D       C    G/B     C        D          G
And on my leaning shoulder she laid her snow-white hand.

    Em     C         Bm           C           D      G
She bid me take life easy, as the grass grows on the weirs;

    G     Bm7       C  G/B       C      D       G
But I was young and foolish, and now am full of tears.
Tap to rate this tab
# A B C D E F G H I J K L M N O P Q R S T U V W X Y Z