Emil Bulls - Close To The Wind tab

This is the Solo from the Song “Close to the Wind”, from the german Band ‚Emil Bulls’.


e------------------------------------------------------------------------------|
b------------------------------------------------------------------------------|
g--------------------------------11---11-12-11-9-------------------------------|
d---9---12-----------9---12----------------------9---12--11-------------9-9----|
a--------------9--------------------------------------------9--9----9-12----12-|
e----------------------------------------------------------------12------------|


e--------------------------------------14--------------------------------------|
b---------78787878-12--12--12-15-14-12-----------------------------------------|
g-79797979---------------------------------------------------------------------|
d------------------------------------------------------------------------------|
a------------------------------------------------------------------------------|
e------------------------------------------------------------------------------|
Tap to rate this tab
 
# A B C D E F G H I J K L M N O P Q R S T U V W X Y Z