Song name
# A B C D E F G H I J K L M N O P Q R S T U V W X Y Z

Emilia - Big Big World tab

Help us improve GuitareTab! Take a short survey!
----------------------------------------------------------------------------
			     BIG BIG WORLD - Emilia
----------------------------------------------------------------------------
Tabbed by: Celeste Moone
Email: ozziwa@hotmail.com

Tuning:                * C                                G
  TIME
e|----|---------------|--0-------0--------0------0---1--|------------------|
B|-4--|----1-----3----|---------------------------------|-3------3---------|
G|----|---------------|-----0-------0---------0---------|-----0------0-----|
D|-4--|---------------|---------------------------------|------------------|
A|----|---------------|---------------------------------|------------------|
E|----|---------------|--3----------------3-------------|-3----------------|
                         1   +   2   +    3    +  4   +

                   **   F(bar)                               C
e|-3------------0----|------------------------------------|--0--------------|
B|---------3---------|--1--------1--------1-------1----3--|---------1-------|
G|----0--------------|------2--------2--------2-----------|-----0-------0---|
D|-------------------|------------------------------------|-----------------|
A|-------------------|------------------------------------|-----------------|
E|-3-----------------|--1-----------------1---------------|--3--------------|

  G                 Repeat bars 1+2 * to **  THEN    F
e|-----------------|-----------------------|-------------------1------1-----|
B|-3-------1--3----|-----------------------|---------1----------------------|
G|-----0-----------|-----------------------|----2---------2-------2------2--|
D|-----------------|-----------------------|--------------------------------|
A|-----------------|-----------------------|--------------------------------|
E|-3---------------|-----------------------|-1------------------------------|

  C
e|-----0------------------0-------|---0-------0-----------------------------|
B|--------------3-----------------|-------------------3---------3-----------|
G|---------3---------0--------0---|-------0-------0--------0------------0---|
D|--------------------------------|-----------------------------------------|
A|-3------------------------------|-----------------------------------------|
E|--------------3-----------------|-----------------------------------------|

   To Verse
Related for Big Big World tab