Song name
# A B C D E F G H I J K L M N O P Q R S T U V W X Y Z

Emiliana Torrini - Sunnyroad tab

Standard Tuning

Pattern I

|----5--3----|-0----0~~~~~~~--|------------|----------|
|------------|----------------|-3----5---2-|-(2)------|
|----5--4----|-2~~~~~~~~~~~~--|------------|----------|
|------------|----------------|-3----5---2-|-(2)------|
|-0----------|----------------|-1----3---0-|----------|
|------------|----------------|------------|----------|


|----5--3----|-0---0~~~~~~--|------------|-------------------|
|------------|--------------|-3----5---2~|~~~~---2~~~~~~-----|
|----5--4----|-2---2~~~~~~--|------------|-------------------|
|------------|--------------|-3----5---2~|~~~~~~~~~~~~~~-----|
|-0----------|--------------|-1----3---0-|-------------------|
|------------|--------------|------------|---------------0h3-|


|----5--3----|-0----0~~~~~~~--|------------|--------|
|------------|----------------|-3----5---2~|~~~~----|
|----5--4----|-2~~~~~~~~~~~~--|------------|--------|
|------------|----------------|-3----5---2~|~~~~----|
|-0----------|----------------|-1----3---0-|--------|
|------------|----------------|------------|--------|


|----5--3----|-0----0~~~~~~~--|------------|--------|
|------------|----------------|-3----5---2~|~~~~----|
|----5--4----|-2~~~~~~~~~~~~--|------------|--------|
|------------|----------------|-3----5---2~|~~~~----|
|-0----------|----------------|-1----3---0-|--0-----|
|------------|----------------|------------|--------|


Pattern II
  Am7       C         F        C
e|-----0---|-----0---|---0---0---|-0-----0-----|
b|---1---1-|---1---1-|---1---1---|---0h1---1p0-|
g|---0--0--|---0--0--|-----------|-------------|
d|----2----|----2----|-----------|---0h2-------|
a|-0-------|---------|---------3-|-------------|
e|---------|-3-------|-1---0-----|-------------|


Pattern III
(first three chords with same picking pattern as above)
   C  E  Fmaj7 D7        Am
e|-0--0--0-----2~~-3p2-0-------|
b|-1--0--1-----1~~-------1-----|
g|-0--1--2-----------------2---|
d|-2--2--3-2-0~~~~-----------2-| straight into pattern II
a|-3---------------------------|
e|-----------------------------|


Intro (I)

Verse 1 (II) "Wrote you this..."
        (III) "You know at night"
        (II) "You said you'd meet"

Chorus (I) "It's time, meet me"

Verse 2 (II) "I never married"
        (III) "I know that night"
        (II) "Will you still meet me"

Chorus (I) "It's time, meet me"

Verse 3 (II) "Well this is it"
        (III) "This time"
        (II) "Now come and meet"
Tap to rate this tab
# A B C D E F G H I J K L M N O P Q R S T U V W X Y Z