Song name
# A B C D E F G H I J K L M N O P Q R S T U V W X Y Z

Emily Osment - You Are The Only One tab

Emily Osment - You Are The Only One
-----------------------------------

This is how I play the song. The intro and verse are not exactly
what they're playing but it sounds good ;)
Check out my video: http://www.youtube.com/watch?v=_mcnW-ouIjA



### INTRO ### 00:00 ###
e|-------------------------|
B|-------------------------|
G|--99-9-7--7----99-7-999--| 2x
D|--77-7-7--7----77-7-777--|
A|--pm---------------------|
E|-------------------------|


### VERSE ### 00:06 ###
e|-------------------------|--------|--------|--------|
B|-------------------------|--------|--------|--------| 2x
G|--99-9-7--7----99-7-999--|--5-----|--7-----|--------|
D|--77-7-7--7----77-7-777--|--3-----|--5-----|--7-----| w/o last chord
A|--pm---------------------|--------|--------|--5-----| on 2nd time
E|-------------------------|--------|--------|--------|


### PRE-CHORUS ### 00:27 ###
e|-----------------------------------------|
B|-----------------------------------------|
G|--7-------9--------10--------12----------| tr
D|-----------------------------------------|
A|-----------------------------------------|
E|-----------------------------------------|


### CHORUS ### 00:30 ###
e|------------|------------|----------|-------------|
B|------------|------------|----------|-------------|
G|--33333333--|------------|--55--55--|--55--5-555--| 2x
D|--33333333--|--33333333--|--55--55--|--55--5-555--|
A|--11111111--|--33333333--|--33--33--|--33--3-333--|
E|------------|--11111111--|----------|-------------|

e|------------|------------|--------------------|
B|------------|------------|--------------------|
G|------------|------------|--------------------| 2x
D|--77777777--|--33333333--|--5555555555555555--|
A|--77777777--|--33333333--|--5555555555555555--|
E|--55555555--|--11111111--|--3333333333333333--|


### POST-CHORUS ### 00:55 ###
e|--------------------------------------|
B|--------------------------------------|
G|--------------------------------------|
D|--7-------9-------10-------12---------| tr
A|--------------------------------------|
E|--------------------------------------|



### VERSE ### 00:58 ###

### PRE-CHORUS ### 01:19 ###

### CHORUS ### 01:22 ###



### INTERLUDE ### 01:47 ###
e|----------------------|--------------------------------------------|
B|----------------------|--------------------------------------------|
G|----------------------|--7b99999999r77777777--7b99999999r77777777--|
D|----------------------|--------------------------------------------|
A|--5----3----1----1----|--------------------------------------------|
E|----------------------|--------------------------------------------|

e|---------------------------------------------|
B|-----------------------------------------20--|
G|--12-12-12-12-12-12-12-12-14-14-14/17-17-----|
D|---------------------------------------------|
A|---------------------------------------------|
E|---------------------------------------------|



### CHORUS ### 02:05 ### (1st part 4x, 2nd part 3x)
Tap to rate this tab
# A B C D E F G H I J K L M N O P Q R S T U V W X Y Z