Song name
# A B C D E F G H I J K L M N O P Q R S T U V W X Y Z

Emilys Army - Loch Lomond tab

INTRO:

Guitar 1:

e|------------------------------------------------------------------------|
B|------------------------------------------------------------------------|
G|---------------------------------7777-99999999-55555555-55555555---77---|
D|----------77777777-55555555------5555-77777777-33333333-33333333---77-5-|
A|-55555555 55555555-33333333-5555-----------------------------------55-5-|
E|-33333333-------------------3333--------------------------------------3-|
   ........ ........ ........ .... .... ........ ........ ........

Guitar 2: No sound

RIFF:


e|-------------------------------------------------------------------------|
B|-------------------------------------------------------------------------|
G|-------------------------------------------------------------------------|
D|----------------------------------5--------------------------------------|
A|--------2------------------2-5-5/7---7-5--5-7-5-0-2------5-----5---------|
E|--3-3-5---5-3-5--5-3-0--3-3-------------------------3--3---3-3---3-5-5-3-|
Tap to rate this tab
 
# A B C D E F G H I J K L M N O P Q R S T U V W X Y Z