Song name
# A B C D E F G H I J K L M N O P Q R S T U V W X Y Z

Eminem - Criminal tab

Eminem
Criminal
Standard tuning

Tab by: Theeraphan Chaiyaphan
|---7----4----3----7---------------------|
|---8----5----4----8----8h9h10-9-8-7-8---|
|---9----6----5----9---------------------|
|---9----6----5----9---------------------|
|---7----4----3----7---------------------|
|----------------------------------------|
    2    2    2    2
play each chords twice
 Well is quite easy to play if you are good at finger tapping
I think that song is quite good for eminem but other people don't like it

Bass tab:

|--------------------------|
|--------------------------|
|--------------------------|
|--7--7--4--4--3--3--7--7--|
Tap to rate this tab
# A B C D E F G H I J K L M N O P Q R S T U V W X Y Z