Guitaretab - guitar tabs
Song name
# A B C D E F G H I J K L M N O P Q R S T U V W X Y Z

Eminem - Not Afraid chords

Highlighted       Show chord diagrams
-------------------------------------------------------------------------------
			     NOT AFRAID - EMINEM
-------------------------------------------------------------------------------
Tabbed by: Jetfuel495
Email:

Tuning: Standard (LEAKED VERSION) Eb (ALBUM VERSION)


IMPORTANT: THIS TAB IS FOR THE LEAKED VERSION THAT'S BEEN POPPING UP ALL AROUND YOUTUBE.

FOR THE ALBUM VERSION FOUND ON EMINEM.COM, TUNE ONE HALF STEP DOWN OR PLAY 
EVERYTHING ONE FRET LOWER.


Chords Used:

        c#m             Amaj            Emaj            Bmaj*
[ Tab from: http://www.guitaretab.com/e/eminem/223317.html ]
e|--------------------------------------0------------------------------------|
B|------5---------------2---------------0---------------4--------------------|
G|------6---------------2---------------1---------------4--------------------|
D|------6---------------2---------------2---------------4--------------------|
A|------4---------------0---------------2---------------2--------------------|
E|--------------------------------------0------------------------------------|



**It's either a B Major chord or it's something like this:



e|-------|
B|---7---|
G|---8---|
D|---9---|
A|---6---|
E|-------|




            c#m

I'm not afraid (I'm not afraid)

             A

To take a stand (to take a stand)

         E

Everybody (everybody)

               B

Come take my hand (come take my hand)

                          c#m

We'll walk this world together, through the storm

            A

Whatever weather, cold or warm

                       E

Just lettin' you know that you're not alone

          B

Holla if you feel like you've been down the same road



-----



Listen to the song if you want to get the proper rhythm.
Related for Not Afraid chords
Not Afraid chords by Eminem