Song name
# A B C D E F G H I J K L M N O P Q R S T U V W X Y Z

Eminem - Stan tab

I decided to convert Stan into a rock song>>Check it...


Intro/Verse:

e|-----------------------------------------------------------------|
B|-----------------------------------------------------------------|
G|--------5--5/7---7-----------------------------------------------|
D|-2----2-5--5/7---7-5-4-------------------------------------------|
A|-2----2-3--3/5---5-5-4-------------------------------------------|
E|-0----0------------3-2-------------------------------------------|


e|---------------------------------------------------|
B|---------------------------------------------------|
G|--------5--5/6--6\5--------------------------------|
D|-2----2-5--5/6--6\5--------------------------------|
A|-2----2-3--3/4--4\3--------------------------------|
E|-0----0--------------------------------------------|

Chorus:

e|--------------3333-0-3----------------------------------
B|--------------0000-1-0----------------------------------
G|-2222---------0000-0-0----------------------------------
D|-2222-3333----0000-2-0----------------------------------
A|-0000-3333----2222-3-2----------------------------------
E|------1111----3333-0-3----------------------------------

Back to verse

e|-----------------------------------------------------------------|
B|-----------------------------------------------------------------|
G|--------5--5/7---7---4---4---------------------------------------|
D|-2----2-5--5/7---7-5-4-4-4---------------------------------------|
A|-2----2-3--3/5---5-5-2-4-2---------------------------------------|
E|-0----0------------3---2-----------------------------------------|

Stir till frothy and enjoi children>  1 love Boston>>    Hit me up @ Freakonaleashooo@yahoo.com
Tap to rate this tab
 
# A B C D E F G H I J K L M N O P Q R S T U V W X Y Z