Song name
# A B C D E F G H I J K L M N O P Q R S T U V W X Y Z

Eminem - My Name Is tab

 "Hi My Name Is..." (Intro/Chorus)
|----------------------------------------------|
|-5-7--7-9--9-12----10-8-9-7-------------------|
|----------------------------------------------|    
|----------------------------------------------|  [x4]
|----------------------------------------------|      
|----------------------------------------------|


 "Hi Kids..." (verse 1)
|----------------------------------------------|      
|----------------------------------------------|
|----------------------------------------------|      
|----------------------------------------------|  [x4]
|----------------------------------------------|      
|1-1--2-2--4-4--2-2----------------------------|

(bridge)
|----------------------------------------------|      
|-----3--2-------------------------------------|
|3--5------------------------------------------|
|----------------------------------------------|  [x4]   
|----------------------------------------------|
|----------------------------------------------|


 "Hi My Name Is..." (Chorus 2)
|----------------------------------------------|
|-5-7--7-9--9-12----10-8-9-7-------------------|
|----------------------------------------------|    
|----------------------------------------------|  [x4]
|----------------------------------------------|      
|----------------------------------------------|


 "Mindless Teacher wanted..." (verse 2)
|----------------------------------------------|      
|----------------------------------------------|
|----------------------------------------------|      
|----------------------------------------------|  [x4]
|----------------------------------------------|      
|1-1--2-2--4-4--2-2----------------------------|

"99% of my life i was..." (bridge)
|----------------------------------------------|      
|-----3--2-------------------------------------|
|3--5------------------------------------------|
|----------------------------------------------|  [x4]   
|----------------------------------------------|
|----------------------------------------------|


 "Hi My Name Is..." (Chorus 3)
|----------------------------------------------|
|-5-7--7-9--9-12----10-8-9-7-------------------|
|----------------------------------------------|    
|----------------------------------------------|  [x4]
|----------------------------------------------|      
|----------------------------------------------|


 "Stop the tape..." (verse 3)
|----------------------------------------------|      
|----------------------------------------------|
|----------------------------------------------|      
|----------------------------------------------|  [x4]
|----------------------------------------------|      
|1-1--2-2--4-4--2-2----------------------------|

 "Clothes ripped like..."(bridge)
|----------------------------------------------|      
|-----3--2-------------------------------------|
|3--5------------------------------------------|
|----------------------------------------------|  [x4]   
|----------------------------------------------|
|----------------------------------------------|


 "Hi My Name Is..." (Chorus 4)
|----------------------------------------------|
|-5-7--7-9--9-12----10-8-9-7-------------------|
|----------------------------------------------|    
|----------------------------------------------|  [x8]
|----------------------------------------------|      
|----------------------------------------------|
Tap to rate this tab
# A B C D E F G H I J K L M N O P Q R S T U V W X Y Z