Song name
# A B C D E F G H I J K L M N O P Q R S T U V W X Y Z

Eminem - The Real Slim Shady tab

Tabbed By Uriel Garcia, so if u want more tabs e-mail me @  zidjiang@hotmail.com

I got a lot of tabs of various artist


You play the whole song like this:

h=Hammer
p=Pull of

E----------8--------------------------------------
B------8-9----9-8--9-8h9p8-6-8--------------------
G--5-8--------------------------------------------
D-------------------------------------------------
A-------------------------------------------------
E-------------------------------------------------

it's really easy with a bit of practice

then the last solo of the song goes like this:


E-10-8-----------------------
B------8-6-6-----------------
G------------8-7-5-----------
D----------------------------
A----------------------------
E----------------------------


Repeat until the end of the song
Tap to rate this tab
# A B C D E F G H I J K L M N O P Q R S T U V W X Y Z