Song name
# A B C D E F G H I J K L M N O P Q R S T U V W X Y Z

Emm Gryner - Serenade tab

Song: Serenade
Artist: Emm Gryner
Album: Science Fair (1999)

I tabbed this song out for two guitars, there might possibly be three but I couldn't 
I couldn't find any Emm Gryner tabs anywhere so I decided to try it myself, it's my first 
and I'm interested in your opinion. It
sounds about right but the C7 could possibly be a C.

Anyways, questions, comments? rc_me@hotmail.com

Guitar 1 (standard tuning)
Guitar 2 (standard tuning)

Intro (guitar  2):
e|-------------------------------------------------------------------------------|
B|-------------------------------------------------------------------------------|
G|---------------------------------------------------------0---------------------|
D|----------0-----------------------------------0/2------------------------------|
A|--0/2-----------------2---0--5---3-------------------------------0--5--3-------|
E|----------------3--------------------------------------------3-----------------|

Intro (guitar 1):

G     C7

G
Dust from a dim southern star
Em
Digits flash in double time
C7                  D                G
San Diego just hold on and never mind

Guitar 2 kicks in throughout the rest of the song with this riff:


e|--3---------2-----------0----------------|
B|-----3---------3-----------3-------------|
G|--------0--------0-----------------------|
D|-----------------------------------------|
A|-----------------------------------------|
E|-----------------------------------------|


 G
Faded again in the lounge
Em
Blood and wine and the water downtown
    C7                    D                         G
Here winter kicks out the summer for hanging around


C7                                     G
Pass the time and watch the boy get off
C7                                  G
Grab a jet and give it one more shot
C7                                   G
See your face and write a blurry line
         D             C7                G
It's a good day for wishing you were mine
C7                     G
I wish it all the time


G
Rushing to slow the decay
Em
I don't care what the people say
C7                D                            G
Days burn up like weed and we're still the same

G
Shoot me a scene where I'm easy
Em
Where pieces fit and people agree
C7                    D                             G
No one ever sees the way you never cease to save me

C7                                  G
Monday comes and everything is wrong
C7                                    G
Dull and cold like late December dawn
C7                                     G
See your face and ask someone the time
            D         C7                 G
It's a good day for wishing you were mine

C7                             G
I wish it all the time
C7                             G
I wish it all the time
C7                             G
I wish it all the time
Tap to rate this tab
# A B C D E F G H I J K L M N O P Q R S T U V W X Y Z