Emmanuel Horvilleur - 19 tab

Tonalidad: E (Mi mayor)
Intro: E A Bm C#m Am


C#m  C/C#m      B/C#m
Nena, 19 son tus anios
          A#/C#m  A/Am
y tu coleccion
G#m           G/G#m
tienes tantos novios
     F#/G#m     F/G#m  E
como novias ha tenido dios

Riff:
Acordes:  E     A (x2)
Punteo:
e|----------------------------------------------------------12-----------|
B|--12/14--12--------------12/14--12-------------------12/14-------------|
G|--11/13--11--13p11-13----11/13--11-13p11-13--11---------------13p11-13-|
D|------------------------------------------------14---------------------|
A|-----------------------------------------------------------------------|
E|-----------------------------------------------------------------------|

e|-----------------------------------------------------------------------|
B|--12/14-12-------------------------------------------------------------|
G|--11/13-11---11-13p11-13--11-------------------------------------------|
D|------------------------------14---------------------------------------|
A|-----------------------------------------------------------------------|
E|-----------------------------------------------------------------------|


      E
Nena, yo no fui
        A
el que te mando a matar
         E
lo entendiste mal
        A
no te quise lastimar

     A            Bm       C#m
Pues nena lo entendiste mal
         D       C#m
yo no quise matar,
    A               Am
lo nuestrooooo..OhOhOh

-----RIFF-----

        E
Y en la soledad
        A
de mi cuestion emocional
        E
tuve un plan genial
        A
no lo voy a confesar

     A            Bm       C#m
Pues nena lo entendiste mal
        D      C#m
yo no quise matar
     A           C#m
lo nuestrooooo  OhOhOh
    A               Am
lo nuestrooooo..OhOhOh

    A            Bm       C#m
Pues nena lo entendiste mal
        D       C#m
yo no quise matar
     A           C#m
lo nuestrooooo  OhOhOh  (X3)

    A   Am   E

    A   E A(X3)  E
Tap to rate this tab
 
# A B C D E F G H I J K L M N O P Q R S T U V W X Y Z