Emo Side Project - Chemicals tab

Chemicals

Standard Tuning
Capo on the 4th Fret

verse/intro
e|----0------0------0--------------0-------0--------0----------------|
B|-------0-----0-------0--------------0-------0--------0-------------|
G|----------------2------------------------------0-------------------|
D|---------0----------------x4-----------4---------------x4----------|
A|--3----------------------------------------------------------------|
E|--------------------------------0----------------------------------|

chorus (repeat twice)
e|----0------0-------0---------0------0--------0---------------|
B|-------0------0--------0--------0------0--------0------------|
G|-----------------2-------------------------0-----------------|
D|---------4-------------------------4-----------------x2------|
A|--0-----------------------0----------------------------------|
E|-------------------------------------------------------------|

e|----0------0-------0---------0------0--------0---------------|
B|-------0------0--------0--------0------0--------0------------|
G|-----------------2-------------------------0-----------------|
D|---------4-------------------------4-----------------x2------|
A|--3-----------------------3----------------------------------|
E|-------------------------------------------------------------|

e|----0------0-------0---------0------0--------0---------------|
B|-------0------0--------0--------0------0--------0------------|
G|-----------------2-------------------------0-----------------|
D|---------4-------------------------4-----------------x2------|
A|-------------------------------------------------------------|
E|--3-----------------------3----------------------------------|

e|----0------0-------0---------0------0--------0---------------|
B|-------0------0--------0--------0------0--------0------------|
G|-----------------2-------------------------0-----------------|
D|---------4-------------------------4-----------------x2------|
A|-------------------------------------------------------------|
E|--0-----------------------0----------------------------------|


ending
[riff 1] repeat twice
e|----0------0-------0---------0------0--------0---------------|
B|-------0------0--------0--------0------0--------0------------|
G|-----------------0-------------------------4-----------------|
D|---------2-------------------------4-------------------------|
A|-------------------------------------------------------------|
E|--0-----------------------0----------------------------------|

e|----0------0-------0---------0------0--------0---------------|
B|-------0------0--------0--------0------0--------0------------|
G|-----------------7-------------------------9-----------------|
D|---------5-------------------------7-------------------------|
A|-------------------------------------------------------------|
E|--0-----------------------0----------------------------------|

[riff 2]
e|----0------0-------0---------0------0--------0---------------|
B|-------0------0--------0--------0------0--------0------------|
G|-----------------0-------------------------4-----------------|
D|---------2-------------------------4-------------------------|
A|--0-----------------------0----------------------------------|
E|-------------------------------------------------------------|

e|----0------0-------0---------0------0--------0---------------|
B|-------0------0--------0--------0------0--------0------------|
G|-----------------7-------------------------9-----------------|
D|---------5-------------------------7-------------------------|
A|--0-----------------------0----------------------------------|
E|-------------------------------------------------------------|
Tap to rate this tab
 
# A B C D E F G H I J K L M N O P Q R S T U V W X Y Z