Guitaretab - guitar tabs
Song name
# A B C D E F G H I J K L M N O P Q R S T U V W X Y Z

Empyrium - A Gentle Grieving Farewell Kiss tab

    Empyrium

    'A Gentle Grieving Farewell Kiss'

    from 'A Wintersunset...' album

--------------------------------------

Standard tuning, 3/4


Acoustic guitar plays

Figure 1:
       Am          D                        Dm          A   Asus2
    E |------0-----2-3-2-0---0-|           |------5-----------------|
    B |1---1---1---------------|           |6---6---6---1---0-----0-|
    G |----------2-------------|           |----------7-------2-----|
    D |------------0---------0-| x 3, then |------------------------|
    A |0---------0-------------|           |5---------5-0---------0-|
    E |------------------------|           |------------------------|


Flute plays (flute mapped to guitar)

Low tune:
    B |5---7-8-------|5---7-8-------|5---8-7-------|6-----|
    G |--------7-----|--------7-----|--------7-----|---5--|

High tune:
    E |5---5---------|5---5---------|5---5---------|5-----|
    B |------8-7-----|------8-7-----|------8-7-----|---5--|


Structure:

    Figure 1
    Figure 1 & Low tune
    Figure 1 & High tune
    Figure 1 & Low tune
    Figure 1 & High tune

Downstroke on Am(V):

    E |------5-|
    B |-----5--|
    G |----5---|
    D |---7----|
    A |--7-----|
    E |-5------|

--------------------------------------
tabbed by Denis Beskov (denis@phono.ru)
Visit MetalTabs.com for more metal tablatur
[ Tab from: http://www.guitaretab.com/e/empyrium/38402.html ]
Related for A Gentle Grieving Farewell Kiss tab