Song name
# A B C D E F G H I J K L M N O P Q R S T U V W X Y Z

Emy Reynolds - Surprise Surprise tab

Artist: Emy Reynolds
      Title: Surprise Suprise


Intro:

e|------7-------------------------------7----------------------|
B|-------------7--------9----------------------7-------9-------|
G|---8----------------8---------9----8---------------8----9----|
D|--------9-8-----9-9------9-6-----9------9-8-----/9------9----|
A|--------------------------------------------------------11---|
E|-------------------------------------------------------------|

Verse:

e|------7-------------------------------7----------------------|
B|-------------7--------9----------------------7-------9-------|
G|---8----------------8---------9----8---------------8----9----|
D|--------9-8-----9-9------9-6-----9------9-8-----/9------9----|
A|--------------------------------------------------------11---|
E|-------------------------------------------------------------|

e|------7------------------------------------------------------|
B|-------------7--------9--------7----7-----5-7--7-------------|
G|---8----------------8------9---------------------------------|
D|--------9-8-----/9-------6---8----8---6-8--------------------|
A|-------------------------------------------------------------|
E|-------------------------------------------------------------|

Chorus:

e|------7-------------------------------7----------------------|
B|-------------7--------9----------------------7-------9-------|
G|---8----------------8---------9----8---------------8----9----|
D|--------9-8-----9-9------9-6-----9------9-8-----/9------9----|
A|--------------------------------------------------------11---|
E|-------------------------------------------------------------|

e|------7-------------------------------7----------------------|
B|-------------7--------9----------------------7-------9-------|
G|---8----------------8---------9----8---------------8----9----|
D|--------9-8-----9-9------9-6-----9------9-8-----/9------9----|
A|--------------------------------------------------------11---|
E|-------------------------------------------------------------|



Make me a wish, make it just for me
Seal it with a kiss, on delivery
Just like Christmas eve, so impatiently waiting.
Surprise Surprise Surprise Surprise
Surprise Surprise Surprise Surprise
Show me a star, name it after me
Somewhere far away, another galaxy
Just like astronauts, so weightlessly waiting.
Surprise Surprise Surprise Surprise
Surprise Surprise Surprise Surprise

Later tonight, I'll keep on the light, light, light for you.

Make me a wish, make it just for me
Seal it with a kiss, as a mystery
Just like Christmas eve, so impatiently waiting.
Surprise Surprise Surprise Surprise
Surprise Surprise Surprise Surprise
Surprise Surprise Surprise Surprise
Surprise Surprise Surprise Surprise


Tabbed by: Blaine Arihara

http://www.emyreynolds.com/
Tap to rate this tab
 
# A B C D E F G H I J K L M N O P Q R S T U V W X Y Z