Song name
# A B C D E F G H I J K L M N O P Q R S T U V W X Y Z

Enanitos Verdes - Luz De Dia tab

heres the solo of this song. The solo is work out the live version of the disc "amores 
en vivo". Here it goes:

First solo:

...una vez mas
e-12--12-13-15-13-12-13-12--10--8--|
B----------------------------------|
G----------------------------------|
D----------------------------------|
A----------------------------------|
E----------------------------------|

Full Solo:

e-----7-8-8/10-(10)--8-7------------------------------|
B-10----------------------10-12-8~~--8h10--10---------|
G--------------------------------------------9-10-9---|
D-----------------------------------------------------|
A-----------------------------------------------------|
E-----------------------------------------------------|

                                                slide without picking
e-10-12-13-15--13-12-------12--|-12\8-7/10--8\7---------|
B--------------------13-15-----|----------------8/10\7--|
G------------------------------|------------------------|
D------------------------------|------------------------|
A------------------------------|------------------------|
E------------------------------|------------------------|

Im going to give the complete tab in the nexts days so any comment email me or contact 
profile. Thanks for needing my help!!!jaja just kiding.
gabys2guitar@yahoo.com
Tap to rate this tab
 
# A B C D E F G H I J K L M N O P Q R S T U V W X Y Z