Song name
# A B C D E F G H I J K L M N O P Q R S T U V W X Y Z

Engine Down - Intent To Pacify tab

Engine Down - Intent To Pacify

h = hammer
m = mute the cord



 _______
|       |
| INTRO |
|_______|

Rythm Guitar
------------

E|---------------------------------------------------------------------------|
B|---8----------8------8----------9-----------8------------------3------4--3-|
G|---7----------7------7----------10----------8-----------7------3------3--3-|
D|---5----------5------5----------10----------10----------8------5------5--5-|
A|6--6---6--5---5---6--6---6--9---9-----------10----------8------5------5--5-|
E|-------------------------------------6--8---8----8--6---6---3--3---3--3--3-|




Solo Guitar
-----------

E|----------------------------------------------|
B|----------------------------------------------|
G|---0000---0h1---3---0---0h1---3---1---0---0---|
D|----------------------------------------------|
A|----------------------------------------------|
E|----------------------------------------------|



 _______
|       |
| VERSE |
|_______|

Solo Guitar
-----------

E|-----------------------------------------10------------10---|
B|-----------6------------4--3--------------------------------|
G|-------0-m---------0-m---------------0-m-----------0-m------|
D|---6-----------3----------------13------------13------------|
A|------------------------------------------------------------|
E|------------------------------------------------------------|


 ________
|        |
| BRIDGE |
|________|

Rythm Guitar
------------

E|----3---3-------3---3-------3----|
B|--4---4---4---4---4---4---4---4--|
G|5-----------5-----------5--------|
D|---------------------------------|
A|---------------------------------|
E|---------------------------------|

	>>> Follow this pattern with these cords >>>

E|-3---4---3---10---|
B|-4---3---3---8----|
G|-5---5---3---8----|
D|------------------|
A|------------------|
E|------------------|




Solo Guitar
-----------

E|---------------------------------------------------------------------------|
B|8888--6--9--8--6--8--s4--3--4--4s6--4--3--s8--6--9--8--8s6--6s4--3--4--4s6-|
G|---------------------------------------------------------------------------|
D|---------------------------------------------------------------------------|
A|---------------------------------------------------------------------------|
E|---------------------------------------------------------------------------|


It's the only thing I've found so far... Perhaps I'll continue this someday.
Please advice me if you complete it :
pikwako@hotmail.com
Tap to rate this tab
 
# A B C D E F G H I J K L M N O P Q R S T U V W X Y Z