Song name
# A B C D E F G H I J K L M N O P Q R S T U V W X Y Z

English Beat - Mirror In The Bathroom tab

Mirror in the Bathroom - The Beat


Basic Riff (muted)..

E------------------------------------------------------|
B------------------------------------------------------|
G------------------------------------------------------|
D-------------9-9-9-9-----------12-12-12-12------------|
A-----7-7-7-7---------9-10-9-10------------------------|
E------------------------------------------------------|


E------------------------------------------------------|
B------------------------------------------------------|
G------------------------------------------------------|
D-------------9-9-9-9-----------7-7-7-7----------------|
A-----7-7-7-7---------9-9-9-9--------------------------|
E------------------------------------------------------|


Rhythm Guitar Solo

These are the notes (I think)

but you'll have to listen to get the rhythm


E---0-0-0-0---0-0-0-----2--0-0-0-0-0---0--0-0--5>7-7-7-|
B---3>5-5-5---3-3-3-----2--3-3-3-3>5---3--7-7--6>8-8-8-|
G---2>4-4-4---2-2-2-----2--2-2-2-2>4---2--6-6--5>7-7-7-|
D---X-------------------2-----------------7-7----------|
A---X-------------------X-----------------7-7----------|
E---X-------------------X------------------------------|

Middle 8/ Sax Solo

Twice through Em / G / B / D  / Em / G / A / C

Then Basic Riff twice (8 Bars) while sax solo continues
Tap to rate this tab
# A B C D E F G H I J K L M N O P Q R S T U V W X Y Z