Song name
# A B C D E F G H I J K L M N O P Q R S T U V W X Y Z

Ensiferum - One More Magic Potion tab

-------------------------------------------------------------------------------
			    One More Magic Potion (Intro) - Ensiferum
-------------------------------------------------------------------------------
Tabbed by: Zach Moore
Email:thisnamesuks13@hotmail.com

Tuning:Standard           *Note* (Intro For The Electric Guitar)

e|---------------------------------------------------------------------------|
B|---------------------------------------------------------------------------|
G|---------------------------------------------------------------------------|
D|---------------------------------------------------------------------------|
A|--5--5--7--8--7--4--4--4----5--5--7--8--7--4--4--4-------------------------|
E|---------------------------------------------------------------------------|

e|---------------------------------------------------------------------------|
B|---------------------------------------------------------------------------|
G|---5-----------------------------------------------------------------------|
D|-------8--7--7----4--5-5--7--7---------------------------------------------|
A|---------------------------------------------------------------------------|
E|---------------------------------------------------------------------------|

e|---------------------------------------------------------------------------|
B|---------------------------------------------------------------------------|
G|---------------------------------------------------------------------------|
D|-----------------------------------------5---------------------------------|
A|--5--5--7--8--7--4--4--4----5--5--7--8-------7--7--7-----------------------|
E|---------------------------------------------------------------------------|

e|---------------------------------------------------------------------------|
B|---------------------------------------------------------------------------|
G|-----5---------------------------------------------------------------------|
D|---------8--7--7----4--5-5--7--7-------------------------------------------|
A|---------------------------------------------------------------------------|
E|---------------------------------------------------------------------------|

e|---------------------------------------------------------------------------|
B|---------------------------------------------------------------------------|
G|---------------------------------------------------------------------------|
D|----------------------------------------7----------------------------------|
A|-5--5--7--8--7--4--4--4----5--5--7--8-------7--7--7------------------------|
E|---------------------------------------------------------------------------|

e|---------------------------------------------------------------------------|
B|---------------------------------------------------------------------------|
G|---------------------------------------------------------------------------|
D|-------5-------------------------------------------------------------------|
A|----------8--7--7----4--5-5--7--7------------------------------------------|
E|---------------------------------------------------------------------------|

e|---------------------------------------------------------------------------|
B|---------------------------------------------------------------------------|
G|---------------------------------------------------------------------------|
D|-------------------------------------------7-------------------------------|
A|----5--5--7--8--7--4--4--4----5--5--7--8-------8--8--8---------------------|
E|---------------------------------------------------------------------------|

e|---------------------------------------------------------------------------|
B|---------------------------------------------------------------------------|
G|---------------------------------------------------------------------------|
D|---5-----------------------------------------------------------------------|
A|------8--7--7----4--5-5--7--7----------------------------------------------|
E|---------------------------------------------------------------------------|


| /  slide up
| \  slide down
| h  hammer-on
| p  pull-off
| ~  vibrato
| +  harmonic
| x  Mute note
==================================================================
Tap to rate this tab
 
# A B C D E F G H I J K L M N O P Q R S T U V W X Y Z