Song name
# A B C D E F G H I J K L M N O P Q R S T U V W X Y Z

Ensiferum - Tale Of Revenge tab

                    Hello everybody!
          
                            This is a great song!


   Intro       0.00-0.36
e|-------------------------------------------------------------------------|
B|-------------------------------------------------------------------------|
G|---10--10-10-10-9-7--9--9-9-9-7-5--7--7-7-7-9-10-------------------------|
D|--------------------------------------------------7---7------------------|
A|-------------------------------------------------------------------------|
E|-------------------------------------------------------------------------|

e|-------------------------------------------------------------------------|
B|-------------------------------------------------------------------------|
G|---7--7-7-7-9-10--7-----------5----5-7-----------------------------------|
D|----------------------8---7------7---------------------------------------|
A|-------------------------------------------------------------------------|
E|-------------------------------------------------------------------------|

e|-------------------------------------------------------------------------|
B|-------------------------------------------------------------------------|
G|---10--10-10-10-9-7--9--9-9-9-7-5--7--7-7-7-5-7--------------------------|
D|-------------------------------------------------7---7-------------------|
A|-------------------------------------------------------------------------|
E|-------------------------------------------------------------------------|

e|-------------------------------------------------------------------------|
B|-------------------------------------------------------------------------|
G|---7--7-7-7-9-10--7-----------5----5-7-----------------------------------|
D|----------------------8---7------7---------------------------------------|
A|-------------------------------------------------------------------------|
E|-------------------------------------------------------------------------|

e|-------------------------------------------------------------------------|
B|-------------------------------------------------------------------------|
G|---10--10-10-10-9-7--9--9-9-9-10-9--7--7-7-7-5-7-------------------------|
D|--------------------------------------------------7---7------------------|
A|-------------------------------------------------------------------------|
E|-------------------------------------------------------------------------|

e|-------------------------------------------------------------------------|
B|-------------------------------------------------------------------------|
G|---7--7-7-7-9-10--7-----------5----5-7-----------------------------------|
D|----------------------8---7------7---------------------------------------|
A|-------------------------------------------------------------------------|
E|-------------------------------------------------------------------------|

e|-------------------------------------------------------------------------|
B|-------------------------------------------------------------------------|
G|---10--10-10-10-9-7--9--9-9-9-7-5--7--7-7-7-9-10-------------------------|
D|--------------------------------------------------7---7------------------|
A|-------------------------------------------------------------------------|
E|-------------------------------------------------------------------------|

e|-------------------------------------------------------------------------|
B|-------------------------------------------------------------------------|
G|---7--7-7-7-9-10--7-----------5----5-7-----------------------------------|
D|----------------------8---7------7---------------------------------------|
A|-------------------------------------------------------------------------|
E|-------------------------------------------------------------------------|
                                                     all this 1 time

   Intro Riff       0.00-0.36   
e|-------------------------------------------------------------------------|
B|-------------------------------------------------------------------------|
G|-------------------------------------------------------------------------|
D|---7----------------------------7-----------------7----------------------|
A|---5-----7-----8-----3----------5-----8-----3--7--5----------------------|
E|---------5-----6-----1----------------6-----1--5-------------------------|
                                                          this 2 times

e|-------------------------------------------------------------------------|
B|-------------------------------------------------------------------------|
G|-------------------------------------------------------------------------|
D|---7--------------------------------3-------------------7----------------|
A|---5-555-557-------8-------3--3-----5-555-558-8---3-7---5----------------|
E|-----------5-555-556-66666-1--1-------------6-6-661-5-55-----------------|
       ... ..  ... ..  .....            ... ..    ..    ..     this 2 times


                                 
                          From Alltflesk
Tap to rate this tab
# A B C D E F G H I J K L M N O P Q R S T U V W X Y Z