Song name
# A B C D E F G H I J K L M N O P Q R S T U V W X Y Z

Entombed - About To Die tab

Band- Entombed
Song- About To Die

Tuning:D,G,C,F,A,D (Down One Whole Step)

Intro: Feedback, 8 cymbal hits, fade in with open E string...and let
the thrashing begin!
Riff#1 (Reminds me of Slayer's "War Ensemble") x2
|-----------------------------------------------|
|-----------------------------------------------|
|-----------------------------------------------|
|-----------------------------------------------|
|-2-----pp-3------pp-8-7-2-----pp-3------pp-8-11|
|-0-000310-1-0000310-6-5-0-000310-1-0000310-6-9-|
    ...      ....         ...       ....

Riff#2                        x4
|-------------------------------|
|-------------------------------|
|-------------------------------|
|-9-------pp-10-------pp---pp-8-|
|-7-777-1087-8-7777-1087-1187-6-|
|---...--------....-------------|

Riff#3 (Verse)
|--------------------------|
|--------------------------|
|------------------------8-|
|-2-----pp-3------pp-----6-|
|-0-000310-1-0000310-0-1---|
    ...      ....    . .

Riff#4 (Chorus)     x4
|---------------------|
|---------------------|
|---------------------|
|---------------------|
|-2-11-11-10-10-9-9-8-|
|-0-9--9--8--8--7-7-6-|

Riff#5 (Under solo)  x2
|---------------------|
|---------------------|
|---------------------|
|---------------------|
|-5-5-5-5-5-5-5-5-5-2-|
|-3-3-3-3-3-3-3-3-3-0-|

Then Play Riff#4 under solo for 4 bars, then play another 4 bars,
only slower. And no, I don't have the solo, its not that I'm not
good enough,well, for this one maybe.., I'm just too lazy, but if
anyone wants to help out, that deed would be greatly appreciated.
ANYwho, on to the bridge!

Riff#6
|--------------------------|
|--------------------------|
|--------------------------|
|--------------------------|
|-2------------------------|
|-0-0000-10000-10000-10000-|
    ....  ....  ....  ....

Riff#7 Over riff #6       x2
|---------------------------|
|---------------------------|
|---------------------------|
|---------------------------|
|-2--5--3-5-8-5-2--5--3-5-8-|
|-0--3--1-3-6-3-0--3--1-3-6-|

2nd Time, Hold last chord.
End with Riff#1
Tap to rate this tab
# A B C D E F G H I J K L M N O P Q R S T U V W X Y Z