Song name
# A B C D E F G H I J K L M N O P Q R S T U V W X Y Z

Eraserheads - Alapaap tab

Alapaap (tab)-intro…..
Please rate po di po ako sure sa counting…..
I.
e|-------------------------------------------------------------------------------|
B|-------------------------------------------------------------------------------|
G|-------------------------------------------------------------------------------|  (8x )
D|-----------------4---4---4b5---------------4---4---4b5------------4---4---4b5--|
A|------------5-----------------------------5-------------------------5----------|
E|---3---3-------------------------3---3--------------------3---3----------------|
II.
e|----------------------------------------------------------------------------------|
B|----------------------------------------------------------------------------------|
G|----------------4---4---4b5---------------4---4---4b5----------------4---4---4b5--|  (4 x)
D|------------5---------------------------5-----------------------------5-----------|
A|---3---3-----------------------3---3------------------------3---3-----------------|
E|----------------------------------------------------------------------------------|

MAY KASAMANG……
(I.)
E|-----------------------------------------------------------------------|
B|---4b5------4b5------4b5------4b5------4b5------4b5------4b5------4b5--|
G|-----------------------------------------------------------------------|
D|-----------------------------------------------------------------------|
A|-----------------------------------------------------------------------|
E|-----------------------------------------------------------------------|
(II.)
e|---4b5------4b5------4b5------4b5------4b5------4b5------4b5------4b5--|
B|-----------------------------------------------------------------------|
G|-----------------------------------------------------------------------|
D|-----------------------------------------------------------------------|
A|-----------------------------------------------------------------------|
E|-----------------------------------------------------------------------|
Tap to rate this tab
# A B C D E F G H I J K L M N O P Q R S T U V W X Y Z