Song name
# A B C D E F G H I J K L M N O P Q R S T U V W X Y Z

Eraserheads - Huwag Mo Nang Itanong tab

Artist: Eraserheads
Song: Huwag Mo Nang Itanong
Tabbed by: Carlo Aquino/c.arlo_aquino@yahoo.com
Subukan Nyo Po...

This song is dedicated to
Ms. Shakeys Czarina N. Chico
I Love You!!


Chord Used:

    E     A    F#m   G#m    B     Bm
e|--0--|--0--|--2--|--4--|--2--|--2--|
b|--0--|--2--|--2--|--4--|--4--|--3--|
G|--1--|--2--|--2--|--4--|--4--|--4--|
D|--2--|--2--|--4--|--6--|--4--|--4--|
A|--2--|--0--|--4--|--6--|--2--|--2--|
E|--0--|--0--|--2--|--4--|--x--|--2--|


Verse I:(Guitar 1)

E         A            E
Hika ang inabot nang piliting
    A                 E
Sumabay sayo hanggang kanto
      A                 E
Nang isipan mong parang sweepstakes
      A
Ang hirap manalo


Verse I:(Guitar 2)

    E             A                     E             A
e|--------------------------------------------------------------------------|
b|--------------------------------------------------------------------------|
G|--------------------------------------------------------------------------|
D|--------------------------------------------------------------------------|
A|------5---5-55----------7h9-7/9\7-77------5---5-55----------7/9--9/11-9-7-|
E|--5-7---7-------5-7-7/9---------------5-7---7-------5-7-7/9---------------|


Pre-chorus I:(Guitar 1)

   F#m      G#m
Ngayon pagdating ko sa bahay
   A
Ibaba ang yong kilay
 B
Ayoko ng ingay..


Pre-chorus I:(Guitar 2)
  
    F#m             G#m             A                  B
e|--------------------------------------------------------------------------|
b|--------------------------------------------------------------------------|
G|--------------------------------------------------------------------------|
D|--------------------------------------------------------------------------|
A|-----------------------------------------------------2-2-4--2-4-2-2/7-----|
E|--2-2-4--4/5-4-2--4-4-5--5/7-5-4--4--5-5-7--7/9-7-5-----------------------|


Chorus:(Guitar 1)

E                A
Huwag mo nang itanong sa akin
E               A
Di ko rin naman sasabihin
E                A
Huwag mo nang itanong sa akin
   F#m      B
At di ko na iisipin..


Chorus:(Guitar 2)

    Huwag Mo Nang Itanong Sa Akin..
e|--------------------------------------------|
b|-------------------------------5-4-5--------|
G|--------------------------------------------|
D|--------------------------------------------|
A|--------------------------------------------|
E|--------------------------------------------|

    Di Ko Rin Naman Sasabihin..
e|--------------------------------------------|
b|---------------------------5-4-5------------|
G|--------------------------------------------|
D|--------------------------------------------|
A|--------------------------------------------|
E|--------------------------------------------|

    Huwag Mo Nang Itanong Sa Akin..
e|--------------------------------------------|
b|--------------------------------------------|
G|--------------------------------------------|
D|--------------------------------------------|
A|--------------------------------------------|
E|--0--0-0--0-0-0----5--5-5--5-5-5------------|

    At Di Ko Na Iisipin..
e|--------------------------------------------|
b|--------------------------------------------|
G|--------------------------------------------|
D|--------------------------------------------|
A|-----------------2--------------------------|
E|--2--2-2--2-2-2-----------------------------|


Verse 2: (Guitar 1)

E                  A           E
Field trip, sa may pagawaan ng lapis
     A              E
Ay katulad ng buhay natin
        A              E
Isang mahabang pila, mabagal
     A
At walang katuturan..



Verse II:(Guitar 2)

    E             A                     E             A
e|--------------------------------------------------------------------------|
b|--------------------------------------------------------------------------|
G|--------------------------------------------------------------------------|
D|--------------------------------------------------------------------------|
A|------5---5-55----------7h9-7/9\7-77------5---5-55----------7/9--9/11-9-7-|
E|--5-7---7-------5-7-7/9---------------5-7---7-------5-7-7/9---------------|


Pre-chorus II:(Guitar 1)

     F#m
Ewan ko..
   G#m
Hindi ko alam
      A
Pwede bang wag nalang
       B
Nating Pag-usapan..


Pre-chorus II:(Guitar 2)

    F#m             G#m             A                  B
e|--------------------------------------------------------------------------|
b|--------------------------------------------------------------------------|
G|--------------------------------------------------------------------------|
D|--------------------------------------------------------------------------|
A|-----------------------------------------------------2-2-4--2-4-2-2/7-----|
E|--2-2-4--4/5-4-2--4-4-5--5/7-5-4--4--5-5-7--7/9-7-5-----------------------|


Chorus:(Guitar 1)

E                A
Huwag mo nang itanong sa akin
E               A
Di ko rin naman sasabihin
E                A
Huwag mo nang itanong sa akin
   F#m      B
At di ko na iisipin..


Chorus:(Guitar 2)

    Huwag Mo Nang Itanong Sa Akin..
e|--------------------------------------------|
b|-------------------------------5-4-5--------|
G|--------------------------------------------|
D|--------------------------------------------|
A|--------------------------------------------|
E|--------------------------------------------|

    Di Ko Rin Naman Sasabihin..
e|--------------------------------------------|
b|---------------------------5-4-5------------|
G|--------------------------------------------|
D|--------------------------------------------|
A|--------------------------------------------|
E|--------------------------------------------|

    Huwag Mo Nang Itanong Sa Akin..
e|--------------------------------------------|
b|--------------------------------------------|
G|--------------------------------------------|
D|--------------------------------------------|
A|--------------------------------------------|
E|--0--0-0--0-0-0----5--5-5--5-5-5------------|

    At Di Ko Na Iisipin..
e|--------------------------------------------|
b|--------------------------------------------|
G|---------------------4~---------------------|
D|--------------------------------------------|
A|-----------------2--------------------------|
E|--2--2-2--2-2-2-----------------------------|


ADlib:(Guitar 1)
Repeat 2x
    E             A                     E             A
e|--------------------------------------------------------------------------|
b|--------------------------------------------------------------------------|
G|--------------------------------------------------------------------------|
D|--------------------------------------------------------------------------|
A|------5---5-55----------7h9-7/9\7-77------5---5-55----------7/9--9/11-9-7-|
E|--5-7---7-------5-7-7/9---------------5-7---7-------5-7-7/9---------------|

Adlib:(Guitar 2)
Repeat 2x

    E                      A
e|--12-12-12--11-11--9--7--7-7-7--5-5--4-0----|
b|--------------------------------------------|
G|--------------------------------------------|
D|--------------------------------------------|
A|--------------------------------------------|
E|--------------------------------------------|


Pre-chorus III:(Guitar 1)

     F#m
Ewan ko..
   G#m
Hindi ko alam
      A
Pwede bang wag nalang
       B
Nating Pag-usapan..


Pre-chorus III:(Guitar 2)

    F#m             G#m             A                  B
e|--------------------------------------------------------------------------|
b|--------------------------------------------------------------------------|
G|--------------------------------------------------------------------------|
D|--------------------------------------------------------------------------|
A|-----------------------------------------------------2-2-4--2-4-2-2/7-----|
E|--2-2-4--4/5-4-2--4-4-5--5/7-5-4--4--5-5-7--7/9-7-5-----------------------|


Chorus:(Guitar 1)


Chorus:(Guitar 1)

E                A
Huwag mo nang itanong sa akin
E               A
Di ko rin naman sasabihin
E                A
Huwag mo nang itanong sa akin
   F#m      B
At di ko na iisipin..


Chorus:(Guitar 2)
Repeat 2x

    Huwag Mo Nang Itanong Sa Akin..
e|--------------------------------------------|
b|-------------------------------5-4-5--------|
G|--------------------------------------------|
D|--------------------------------------------|
A|--------------------------------------------|
E|--------------------------------------------|

    Di Ko Rin Naman Sasabihin..
e|--------------------------------------------|
b|---------------------------5-4-5------------|
G|--------------------------------------------|
D|--------------------------------------------|
A|--------------------------------------------|
E|--------------------------------------------|

    Huwag Mo Nang Itanong Sa Akin..
e|--------------------------------------------|
b|--------------------------------------------|
G|--------------------------------------------|
D|--------------------------------------------|
A|--------------------------------------------|
E|--0--0-0--0-0-0----5--5-5--5-5-5------------|

    At Di Ko Na Iisipin..
e|--------------------------------------------|
b|--------------------------------------------|
G|---------------------4~---------------------|
D|--------------------------------------------|
A|-----------------2--------------------------|
E|--2--2-2--2-2-2-----------------------------|


Ending:(Guitar 1)

F#m - Bm
Huwag Mo Na..

Ending:(Guitar 2)

    F#m                       Bm  
e|----2----1----2----2/4-2-1----2----4----2----2/4-2-1----------------------|
b|--2----2----2----2----------4----4----4----4------------------------------|
G|--------------------------------------------------------------------------|
D|--------------------------------------------------------------------------|
A|--------------------------------------------------------------------------|
E|--------------------------------------------------------------------------|

This song is dedicated to
Ms. Shakeys Czarina N. Chico
I Love You!!
Magandang song ito...
Sana magustuhan nyo...
Pag may suggestion send to my
Email or friendster..
c.arlo_aquino@yahoo.com
ty..
Tap to rate this tab
 
# A B C D E F G H I J K L M N O P Q R S T U V W X Y Z