Song name
# A B C D E F G H I J K L M N O P Q R S T U V W X Y Z

Eric Bibb - New Home tab

-----------------------------------------------------------------------------
                            NEW HOME - Eric Bibb
-----------------------------------------------------------------------------

Tabbed by: Chuckd
E-mail: g43guy@gmail.com

Tuning:
Open G Tuning with the low E string dropped to C.
Hi to low:
D
B
G
D
G
C

Phrase 1
|----0------0-------0---0-----0------0-|
|--------------------------------------|
|----0------0-------0---0-----0------0-|
|-----------0h-2--0-----------0h-2-0---|
|--0---3-4------------0---3-4----------|
|--------------------------------------|

Phrase 2
|---------------------------------------|
|----1-----1------1---1-----1-----0---0-|
|----0-----0------0---0-----0-----0---0-|
|---------------------------------------|
|--------0-0h-2-0---------0-0h-2-0--0---|
|--0---4------------0---4---------------|

Phrase 3
|--------------------|
|----0---0---0---0---|
|----0---0---0---0---|
|----------0---2-----|
|------4-------------|
|--4-----------------|

Standard blues phrasing.  1 and 2 are the main verse phrases, 3 is the turnaround phrase 
which occasionally repeats itself.  Questions or comments to g43guy@gmail.com
Tap to rate this tab
# A B C D E F G H I J K L M N O P Q R S T U V W X Y Z