Guitaretab - guitar tabs
Song name
# A B C D E F G H I J K L M N O P Q R S T U V W X Y Z

Eric Clapton - Lost And Found tab

Song: Lost And Found
Artist: Eric Clapton
Album: Back Home.
Difficulty: Hard
Rate: 4/5

Intro Riff:
    G (Rock'n'Blues Power Chord)
E---------------------------------------------------------|
B---------------------------------------------------------|
G---3----0------0--0-0--0-0----3----0------0---0-0--0-0---|
D---3----0------0--0-0--0-0----3----0------0---0-0--0-0---|
A---------------------------------------------------------|
E------------1--------------------------1-----------------|

E---------------------------------------------------------|
B---------------------------------------------------------|
G---3----0------0--0-0--0-0----3----0------0---0-0--0-0---|
D---3----0------0--0-0--0-0----3----0------0---0-0--0-0---|
A---------------------------------------------------------|
E------------1--------------------------1-----------------|


(Riff with G Power Chord)
Falling in the deep end
Stop messin' around
I cant keep from falling
When youíre not around
I cant no rest when you leave
Your love keeps me burnin'
You got me lost and found
And my world keeps turnin'


E
It's not the same

When youíre gone

Feel like I'm
D
Half of myself
      C7
Cause I need to have you around

Riff 4 Times

(Riff with power chord again)
I need to hear that sound
Of you creepin in the mornin'
I need to look in your eyes
When it keeps me learnin'

E
It's not the same

When your gone

Feel like I'm
D
Half of myself
      C7                          C7+A (032210)
Cause I canít keep my feet on the ground
                     C+G# (032110)
You keep me lost and found
                  C
And girl it feels good
C7                C7+A (032210)
So, I want you to know
                    C+G# (032110)
Iím ready to let it show
             C
That I'll be around

Riff 4 Times
[ Tab from: http://www.guitaretab.com/e/eric-clapton/140937.html ]
Then Play This 4 Times:
E----------------------------------------------|
B------------8---------------------------------|
G-----10-12-----12---3---0---------------------|
D--12------------------------------------------|
A------------------------------1---------------|
E----------------------------------3-----------|

E
It's not the same

When your gone

Feel like I'm
D
Half of myself
      C7                          C7+A (032210)
Cause I canít keep my feet on the ground
                     C+G# (032110)
You keep me lost and found
                  C
And girl it feels good
C7                C7+A (032210)
So, I want you to know
                    C+G# (032110)
Iím ready to let it show
             C
That I'll be around
C7                C7+A (032210)
So, I want you to know
                    C+G# (032110)
Iím ready to let it show
             C
That I'll be around

C7                          C7+A (032210)
Canít keep my feet on the ground
                     C+G# (032110)
You keep me lost and found
                  C
And girl it feels good
C7                C7+A (032210)
So, I want you to know
                    C+G# (032110)
Iím ready to let it show
             C
That I'll be around
C7                C7+A (032210)
So, I want you to know
                    C+G# (032110)
Iím ready to let it show
             C
That I'll be around

Riff 4 Times

Then Play This 12 Times:
E----------------------------------------------|
B------------8---------------------------------|
G-----10-12-----12---3---0---------------------|
D--12------------------------------------------|
A------------------------------1---------------|
E----------------------------------3-----------|

*Since this song is cut for a reason that I absolutely don't know,
you can end the song on a complete G

Another tab signed Sample-X@hotmail.com
Related for Lost And Found tab