Song name
# A B C D E F G H I J K L M N O P Q R S T U V W X Y Z

Eric Clapton - Run Back To Your Side tab

Artist: Eric Clapton
Song: Run Back To Your Side
Album: Clapton
Key: A
Genre: Rock Blues
Tabber: DJ Medders

Intro 1st Guitar
  A7
e|---------------------------------------------|
b|---------------------------------------------|
g|---5---2-----2---2-5--2--2-------------------|
D|---5---2-----2---2-5--2--2-------------------|
A|---------------------------------------------|
E|---------------------------------------------|
                                                    
Intro 2nd Guitar (Play Every A7 During The Verses And Chorus)
  A7                                   
e|---------------------------------------------|
b|---------------------------------------------|
g|---5b--------------5-------------------------|
D|-------7---5h7-5h7----7--7-------------------|
A|---------------------------------------------|
E|---------------------------------------------|

Lead Intro
  A7
e|---------------------------------------------|
b|---13------------------13--------------------|
g|-------14--12h14-12h14-----14-14-------------|
D|---------------------------------------------|
A|---------------------------------------------|
E|---------------------------------------------|

Chords
          D7
'Fore the daylight catch me
                 A7
I'll be moving on
          D7
'Fore the daylight catch me
                 A7
I'll be moving on
      E7
I got nothing to lose, boy
D7               A7
All I had is gone
   
   D7
I should've know better
                      A7
I should've hung around
  D7                   
I should've know better
                      A7
I should've hung around
         E7
I had my head out of the window
D7                    A7
Big beat on the ground

          D7
I'm gonna run
                    A7
Run back to your side
          D7
I'm gonna run
                    A7
Run back to your side
    E7
You know that I miss you
D7
Can't be satisfied

Repeat Chords For All Verses And Chorus
Tap to rate this tab
 
# A B C D E F G H I J K L M N O P Q R S T U V W X Y Z