Song name
# A B C D E F G H I J K L M N O P Q R S T U V W X Y Z

Eric Johnson - Cliffs Of Dover Live tab

Help us improve GuitareTab! Take a short survey!
the reason im posting this is so hopefully someone can finish this off or fix some parts
it. its the best version of this song(austin city limits)in my opinion.

----------------3~----------------------------------------------------|
-----------3~---3~--3---1~--/12--10---15---13--12---8------3----------|
-------3h4--------------0~------------12-------------------0----------|
-----5----------5~-------------------------14--12-----10--------------|
-5-5----------------5---3~--/10---9---14-------10---7------2----------|
--------------------------------------------------------------3-------|

------------------10-12--------------------3--19-17--------5~------|
-12--8-10-12-13-----------8~----------3-------------15-----3~------|
------------------12-12--------11--9--5----------------17--5~------|
-------------------9-10--10~----------5-5------------------5~------|
-10--7-9--10-12-----------7~---12-10-----------------------3~------|
-------------------------------------------------------------------|

-10------10-10-10p8-10p8-------------------------------17-17p15-15-----------------------|
------11------------------11----------10-10-10---------------------6----------1--0-------|
--------------------------------12-12---------------15---------------8-7-5-7--0--0-------|
-------------------------------------------------------------------8----------------/5~--|
----8--------------------------------------------13----------------6----------3----------|
-----------------------------10--------------------------------------------------3-------|

------8-12~--10----------10--------------------------7-8~-7\5-------------|
----10----------13-12-13----13b15~------------------8---------8p6-10p8----|
---9-----------------------------------------(12)--7----------------------|
-10------------------------------------5/7--------------------------------|
-------------------------------------8-----10-----------------------------|
--------------------------------------------------------------------------|

-------------------------------------10-14~-------14-15-[15]~----14-15~-14\12--10--------|
-------13-12b13r12-13~------12-13-15------------15-------------15-----------------12\10--|
-10/12----------------------------------------14-------------14--------------------------|
--------------------------12----------------12-------------------------------------------|
-----------------------10----------------------------------------------------------------|
-----------------------------------------------------------------------------------------|

-------------|
-8-10p8-8~---|
-------------|
-------------|
-------------|
-------------|

----------------12-15~--------------12-14-17--15p14-15~-----------12--------------------|
-------------13---------------13-15------------------------15b17~----15---12-15-13-15---|
----------12------------------------------------------------------------14--------------|
-------14-----------------14------------------------------------------------------------|
-10h15-----------------12---------------------------------------------------------------|
---------------------------------------------------------0------------------------------|

---------------------5-8-7-5----------------0---------------------------------|
-12-13-10-12---10~-8---------8---5-7---5~-3---3-0-----------------------------|
-------------9-----------------7-----4------------2-0---2-0-------------------|
------------------------------------------------------2-----2-0-----2-0-------|
----------------------------------------------------------------2-0-----2-0---|
------------------------------------------------------------------------------|

---------------------------------------10-12----10--------------------------------------|
-----------------------8-10------10-13-------13----12-13--10-12---10~-----------10-13---|
---------------------9------9-12--------------------------------9------11b12r11---------|
-----2~---------7-10--------------------------------------------------------------------|
-----------7-10-------------------------------------------------------------------------|
-3-0----/8------------------------------------------------------------------------------|


-------------10-12~--|
----13-12-13---------|
-12------------------|
---------------------|
---------------------|
---------------------|

-10-12-10-14~-12-10-14-15-14-12----14-12-------------------------------------------------|
--------------------------------15-------15-12----15-12----------------------------------|
-----------------------------------------------14-------14-12----14-12-------------------|
--------------------------------------------------------------14-------14-12----14-12----|
-----------------------------------------------------------------------------14----------|
-----------------------------------------------------------------------------------------|

---------------------------------------------------------------------15-19--------|
------------------------------------------------------15-17----15-17-------17~----|
---------------------------------------------------16-------16--------------------|
-------------14~--------------14----16-14-17-16-17--------------------------------|
-14-12---------------14-17-14----17-----------------------------------------------|
-------15-12------15--------------------------------------------------------------|

------------------------------7-11~-------------------13-16--13-17~-19-20-19~---|
----------------8-10---8-7-10-------13-12b13r12-13-15---------------------------|
--------------9------9----------------------------------------------------------|
---------7-10-------------------------------------------------------------------|
----7-10------------------------------------------------------------------------|
-/8-----------------------------------------------------------------------------|

-17-------------------7-11~--7--------------------------7-9----7-----------------|
----19-17-19-----7-10----------7---10-7------------7-10-----10---9-10-7-9---7~---|
--------------/9-----------------9------9-8---8h9~------------------------6------|
--------------------------------------------9------------------------------------|
---------------------------------------------------------------------------------|
---------------------------------------------------------------------------------|

---2---------------------------------------------------------9~---|
-5---2--------------------------------------5--7-----------7------|
-------4-2---4-2--------------------------4------9-8b9r8-9--------|
-----------4-----4-2-----------------4~-7-------------------------|
---------------------4-2-----2~--4/6------------------------------|
-------------------------5-2--------------------------------------|

-------------14-17~---------------------16-19~---|
----------15------------------16-----17----------|
-------14-------------------------14-------------|
-14------------------16----16--------------------|
----12------------------14-----------------------|
-------------------------------------------------|

-15--15----15-17-19-17-15-14-17-15-14----------14-17-15-14------------------------------|
--------17----------------------------15-13-15-------------17-15-------15---------------|
-----------------------------------------------------------------17-14----17-14---------|
--------------------------------------------------------------------------------17-14---|
----------------------------------------------------------------------------------------|
----------------------------------------------------------------------------------------|

-----------------------12----15b18~-15----14----------14----------|
----------------15b17~----15-----------17----15-17----------17~---|
-14------------------------------------------------16----16-------|
----17-14---------------------------------------------------------|
----------17------------------------------------------------------|
-------------0----------------------------------------------------|


--------------------------------------------17-----------------------------|
---------------8-10~----------10~--------19----19-19b20~-19b20r19----17~---|
-------------9-------------11-------------------------------------16-------|
--------7-10------------10------------19-----------------------------------|
---7-10----------------------------17--------------------------------------|
-8-------------------10----------------------------------------------------|

---------------------------/10~---------15-19---------|
--------------------7-8-10--------17-17-------[17]~---|
----------------7-9-----------------------------------|
----------5-7/9---------------------------------------|
------5-7---------------------------------------------|
-/5-7-------------------------------------------------|
Related for Cliffs Of Dover Live tab