Guitaretab - guitar tabs
Song name
# A B C D E F G H I J K L M N O P Q R S T U V W X Y Z

Eric Johnson - Im Finding You tab

I'm Finding You - tab by Jack
Eric Johnson, guitar. Rob Alexander, bass guitar & vocals
Performed in 1984 on Austin City Limits. Available on Eric Johnson's "Souvenir" CD (2000)


  Gadd9 / Dsus4
   m  i  r     (left hand fingering)  
e|---------------|----------------|----------------|----------------|
b|---0--3-3p0-0--|---0---3-3p0-0--|---0---3-3p0-0--|---0---3-3p0-0--|
g|----2------0---|----2-------0---|----2-------0---|----2-------0---|
d|--0----------0-|--0-----------0-|--0-----------0-|--0-----------0-|
a|---------------|----------------|----------------|----------------|
e|-3-------------|-3--------------|-3--------------|-3--------------|


 m  i  r           mriri  r              r  i    m i     r  i mrpi
----------------|----------------------|---------------|----------------|
---0---3-3p0-0--|----1-1p0-0-----------|----1------1---|----1----3------|
----2-------0---|---2-2---2------------|---0-0----0-0--|---0----5-------|
--0-----------0-|--2-------------------|--0----0h2-----|--0----5--------|
----------------|-0--------------------|-3-------------|-3----5---------|
-3--------------|----------------------|---------------|----------------|
"high...         way,  stretch into the night"

 m  i  r           mriri  r              r  i    m i    Am   G7
----------------|----------------------|---------------|-0----3p--|
---0---3-3p0-0--|----1-1p0-0-----------|----1------1---|-1i---3r--|
----2-------0---|---2-2---2------------|---0-0----0-0--|-2r---0---|
--0-----------0-|--2-------------------|--0----0h2-----|-2m---0---|
----------------|-0--------------------|-3-------------|-0----2i--|
-3--------------|----------------------|---------------|-X----3m--|
"one...          way,  leading to your  light"


Gsus4    C
and sooner or later... don't you know? Sooner or later
---------------|---------------|---------------|
----1------1---|----1------1---|----1------1---|
---0-0----0-0--|---0-0----0-0--|---0-0----0-0--|
--0----0h2-----|--0----0h2-----|--0----0h2-----|
-3-------------|-3-------------|-3-------------|
---------------|---------------|---------------|

D7sus4
"   I'm finding..."
-3------------|
-1------------|
-2------------|
-0------------|
--------------|
--------------|
[ Tab from: http://www.guitaretab.com/e/eric-johnson/84446.html ]
G         D7sus4
"You            still I'm finding..."
-3--3--3-|-3--3--3-|
-3--3--3-|-1--1--1-|
-0--0--0-|-2--2--2-|
-0--0--0-|-0--0--0-|
-2--2--2-|-X--X--X-|
-3--3--3-|-X--X--X-|
(see recording for strumming pattern)

G         D7sus4
"You             what am I supposed to ..."   
-3--3--3-|-3--3--3-|
-3--3--3-|-1--1--1-|
-0--0--0-|-2--2--2-|
-0--0--0-|-0--0--0-|
-2--2--2-|-X--X--X-|
-3--3--3-|-X--X--X-|

G         D7sus4
"Do right now?"
-3--3--3-|-3--3--3-|
-3--3--3-|-1--1--1-|
-0--0--0-|-2--2--2-|
-0--0--0-|-0--0--0-|
-2--2--2-|-X--X--X-|
-3--3--3-|-X--X--X-|

G         D7sus4
"Till I'm finding you....hooo?"
-3--3--3-|-3--3--3-|
-3--3--3-|-1--1--1-|
-0--0--0-|-2--2--2-|
-0--0--0-|-0--0--0-|
-2--2--2-|-X--X--X-|
-3--3--3-|-X--X--X-|

G
--------|
--------| 
----0---| 
-----0--|
-0h2----|
--------|
hold chord

solo
Here's the basic outline... listen to the recording for the subtle nuances that make 
such an impressive performance. EJ has the most amazing smooth, bell-like violin tone
and it's played very, very clean. IMO, one of the best lead tones he has ever recorded
and similar to some of Mark Knopfler's tone on "Why Eye Man." Dial in violin tone (dark
plexi amp or Class A with mid-hump, dark), reduce boost on pedal approx 50%, and reduce
volume on guitar. Mix with a clean Fender Twin Reverb with gain @ 3. Bridge pickup,
guitar tone control @ approx 2.5-3).
-------------------------------------------9-10-9-------|
-/7-8-7----------7-8-7-------------------10------10-----| 
-------/9-7-7~-9------9-7-7-9-11~~-----11----------11~~-|
--------------------------------------------------------| 
--------------------------------------------------------|
--------------------------------------------------------| 

--7------------------------------------------------7------------| 
-7-10-7---------------------/7-8-7---------7~~----8-10/15-------| 
-------9^^(11)9-7-7~~9---7--------/9-7-7--9----7-9--------------| 
-----------------9----7-9---------------------------------------| 
----------------------------------------------------------------| 
----------------------------------------------------------------| 


notation legend:

| /  slide up
| \  slide down
| h  hammer-on
| p  pull-off
| ~  vibrato
| +  harmonic
| x  Mute note
Related for Im Finding You tab
Advertisement will be closed in 10 seconds