Song name
# A B C D E F G H I J K L M N O P Q R S T U V W X Y Z

Erykah Badu - Ad 2000 chords

Highlighted       Show chord diagrams
Transcribed by Wadner Auguste

Intro:



Bm7, Bbm7,  Bm7

No they won't be naming.... repeat(2x)

Verse:

Bm7, Am7, Bbm7, Bm7

This world done changed so much...

Bm7, Am7, Bbm7,Bm7   Gm7,
This world done changed              since I've been conscious repeat

(2x)

Chorus
oooh what in the world..... will we do
Amajor7,                     Cmajor7

(the Chorus goes back forth between these 2 Chords the returns back to

the verse)



   Bm7         Am7        Bbm7      Gm7

E-----7-----    -----5-----    -----6-----   -----x-----|
B-----7-----    -----5-----    -----6-----   -----3-----|
G-----7-----    -----5-----    -----6-----   -----4-----|
D-----7-----    -----5-----    -----6-----   -----4-----|
A-----x-----    -----x-----    -----x-----   -----x-----|
E-----7-----    -----5-----    -----6-----   -----3-----|


    Amajor7       Cmajor7
E-----o-----   -----3-----|
B-----3-----   -----5-----|
G-----1-----   -----4-----|
D-----2-----   -----5-----|
A-----o-----   -----3-----|
E-----x-----   -----x-----|
Tap to rate this tab
# A B C D E F G H I J K L M N O P Q R S T U V W X Y Z