Song name
# A B C D E F G H I J K L M N O P Q R S T U V W X Y Z

Essie Jain - Glory tab

http://www.myspace.com/essiejain
Signed to The Leaf Label and Ba Da Bing Records

-------------------------------------------------------------------------------
			     GLORY - Essie Jain
-------------------------------------------------------------------------------
Tabbed by: Joseph Mansfield - sixfoottallrabbit
Email: joe@sixfoottallrabbit.co.uk

Standard Tuning - EADGBe - No Capo
Key: F# Major (6 sharps)
Timing: 6/8   64bpm


This is the first time I've ever written any
 tablature. Pretty sure most of it's right.
I've tabbed both the acoustic guitar and the
 electric guitar and tried to format everything
 as it should be.


***************************************************
Intro:

   Guitar 1

    C#
e |-------------|-------------||
B |-------------|-------------||
G |-------------|-------------||
D |---3-----3---|---3-----3---||
A |-4---4-4---4-|-4---4-4---4-||
E |-------------|-------------||


***************************************************
Verse #1:

   Guitar 1

    C#            F#            C#            C#
e |-------------|-------------|-------------|-------------|
B |-------------|-------------|-------------|-------------|
G |-------------|---3-----3---|-------------|-------------|
D |---3-----3---|-4---4-4---4-|---3-----3---|---3-----3---|
A |-4---4-4---4-|-------------|-4---4-4---4-|-4---4-4---4-|
E |-------------|-------------|-------------|-------------|

    A#m           C#/G#         F#            F#          
e |-------------|-------------|-------------|--------------||
B |-------------|-------------|-------------|--------------||
G |-------------|-------------|-------------|-------------.|| x2
D |-------------|-------------|-------------|-------------.||
A |---8-----8---|---4-----4---|---4-4---4-4-|---4-4---4-4--||
E |-6---6-6---6-|-4---4-4---4-|-2-----2-----|-2-----2------||

I'll rise up from the waters where I've drowned
You will know me, you will see
Your face will light up from the glory that it's found
I am listening, you are hearing me

***************************************************
Chorus #1:

   Guitar 1

    C#            B             F#            F#
e |-------------|-------------|-------------|--------------||
B |-------------|-------------|-------------|--------------||
G |-------------|-------------|-------------|-------------.|| x4
D |---3-----3---|---1-----1---|-------------|-------------.||
A |-4---4-4---4-|-2---4-2---4-|---4-4---4-4-|---4-4---4-4--||
E |-------------|-------------|-2-----2-----|-2-----2------||


Don't go, make your mind up
I've been down, far as can be
Up until then, my voice, it was caught up
Up until then, I never could see

***************************************************
Bridge #1:

   Guitar 1

    C#            A#m           C#/G#         F#            F#
e |-------------|-------------|-------------|-------------|-------------||
B |-------------|-------------|-------------|-------------|-------------||
G |-------------|-------------|-------------|-------------|-------------||
D |---3-----3---|---3-----3---|-------------|-------------|-------------||
A |-4---4-4---4-|-1---1-1---1-|---4-----4---|---4-4---4-4-|---4-4---4-4-||
E |-------------|-------------|-4---4-4---4-|-2-----2-----|-2-----2-----||

   Guitar 2

e |-------------|-------------|-------------|-------------|-------------||
B |-2-----------|-4-----------|-6-----------|-2-----1-----|-------------||
G |-1-----------|-3-----------|-------------|-------------|---3---5p3---||
D |-------------|------------6|------------4|------4------|--4---4---4--||
A |-------------|-------------|-------------|-------------|-------------||
E |-------------|-------------|-------------|-------------|-------------||

***************************************************
Verse #2:

   Guitar 1

    C#            F#            C#            C#
e |-------------|-------------|-------------|-------------|
B |-------------|-------------|-------------|-------------|
G |-------------|---3-----3---|-------------|-------------|
D |---3-----3---|-4---4-4---4-|---3-----3---|---3-----3---|
A |-4---4-4---4-|-------------|-4---4-4---4-|-4---4-4---4-|
E |-------------|-------------|-------------|-------------|

    A#m           C#/G#         F#            F#          
e |-------------|-------------|-------------|-------------||
B |-------------|-------------|-------------|-------------||
G |-------------|-------------|-------------|-------------||
D |-------------|-------------|-------------|-------------||
A |---8-----8---|---4-----4---|---4-4---4-4-|---4-4---4-4-||
E |-6---6-6---6-|-4---4-4---4-|-2-----2-----|-2-----2-----||

You'll find out I am nothing I might seem
It's not opened so easily

***************************************************
Chorus #2:

   Guitar 1

    C#            B             F#            F#
e |-------------|-------------|-------------|--------------||
B |-------------|-------------|-------------|--------------||
G |-------------|-------------|-------------|-------------.|| x4
D |---3-----3---|---1-----1---|-------------|-------------.||
A |-4---4-4---4-|-2---4-2---4-|---4-4---4-4-|---4-4---4-4--||
E |-------------|-------------|-2-----2-----|-2-----2------||


Don't go, make your mind up
I've been down, far as can be
Up until then, my voice, it was caught up
Up until then, I never could see

***************************************************
Bridge #2:

   Guitar 1

    C#            B             F#            F#
e |-------------|-------------|-------------|--------------||
B |-------------|-------------|-------------|--------------||
G |-------------|-------------|-------------|-------------.|| x2
D |---3-----3---|---1-----1---|-------------|-------------.||
A |-4---4-4---4-|-2---4-2---4-|---4-4---4-4-|---4-4---4-4--||
E |-------------|-------------|-2-----2-----|-2-----2------||

   Guitar 2

e -|--4----6--4--|-------------|-9-----8-----|---68--86-----|
B -4/6--6-6--6--6|-7----------7|----7-7------|--7---7--7----|
G -|-------------|-------------|-------------|--------------|
D -|-------------|-------------|-------------|--------------|
A -|-------------|-------------|-------------|--------------|
E -|-------------|-------------|-------------|--------------|

e |--4----64-4--|-------------|-9-----8-----|-6------------||
B |-6--6-6--6---6/7-7---------|-7-----------|-------9------||
G |-------------|-------------|-------------|--------------||
D |-------------|-------------|-------------|--------------||
A |-------------|-------------|-------------|--------------||
E |-------------|-------------|-------------|--------------||

***************************************************
Chorus #3:

   Guitar 1

    C#            B             F#            F#
e |-------------|-------------|-------------|--------------||
B |-------------|-------------|-------------|--------------||
G |-------------|-------------|-------------|-------------.|| x4
D |---3-----3---|---1-----1---|-------------|-------------.||
A |-4---4-4---4-|-2---4-2---4-|---4-4---4-4-|---4-4---4-4--||
E |-------------|-------------|-2-----2-----|-2-----2------||


Don't go, make your mind up
I've been down, far as can be
Up until then, my voice, it was caught up
Up until then, I never could see

***************************************************
Outro:

   Guitar 1

    C#            B             F#            F#
e |-------------|-------------|-------------|-------------|
B |-------------|-------------|-------------|-------------|
G |-------------|-------------|-------------|-------------|
D |---3-----3---|---1-----1---|-------------|-------------|
A |-4---4-4---4-|-2---4-2---4-|---4-4---4-4-|---4-4---4-4-|
E |-------------|-------------|-2-----2-----|-2-----2-----|

    C#            B             F#
e |-------------|-------------|-------------|-------------||
B |-------------|-------------|-------------|-------------||
G |-------------|-------------|-------------|-------------||
D |---3-----3---|---1-----1---|-4-----------|-------------||
A |-4---4-4---4-|-2---4-2---4-|-4-----------|-------------||
E |-------------|-------------|-2-----------|-------------||

   Guitar 2

e -|--4----6--4--|-------------|-9-----8-----|---6----------|
B -4/6--6-6--6--6|-7----------7|------7------|--7---797--7--|
G -|-------------|-------------|-------------|--------------|
D -|-------------|-------------|-------------|--------------|
A -|-------------|-------------|-------------|--------------|
E -|-------------|-------------|-------------|--------------|

e -|--4----6--4--|-------------|-6-----------|--------------||
B -7/6--6-6--6---6/7-7---------|-7-----------|--------------||
G -|-------------|------------6|-------------|--------------||
D -|-------------|-------------|-------------|--------------||
A -|-------------|-------------|-------------|--------------||
E -|-------------|-------------|-------------|--------------||




Really beautiful song. Hope you enjoyed playing it.
-sixfoottallrabbit

===============================================================================
Tap to rate this tab
 
# A B C D E F G H I J K L M N O P Q R S T U V W X Y Z