Song name
# A B C D E F G H I J K L M N O P Q R S T U V W X Y Z

Estirpe Imperial - Primavera tab

Intro/solo:
 
  E5                                G5                 E5
e|-----------------------------------------------------------------|
B|--7-8-----7-8-7------------8-10-12--8--12-10-8-10-12-------------|
G|-9-------------9-7-9---------------------------------------------|
D|--------------------9--------------------------------------------|
A|-----------------------------------------------------------------|
E|-----------------------------------------------------------------|

          A5              E5                 B5              E5
e|----12--10-12-10-8------------------8----------------------------|
B|-12---------------12-10-12-----------12-10-12---8-10-10-8-7------|
G|---------------------------9-------------------------------9-----|
D|-----------------------------------------------------------------|
A|-----------------------------------------------------------------|
E|-----------------------------------------------------------------|



      E5     
Es un ángel que va cabalgando,
     G5                 E5
cabalgando con brio y valor, 
      A5                   E5
va cantando las tristes historias
       B5                 E5
de una guerra que ya terminó.

Primavera lejos de mi patria,
primavera lejos de mi amor,
primavera sin flores y sin risas,
primavera a orillas del Wolchow.

Y sus aguas, que van al Ladoga,
van cantando esta triste canción,
canción triste de amor y de guerra,
canción triste de guerra y amor.

Cuando, ebrio, avanza el enemigo,
y con Vodka ataca sin valor,
rasga el aire más fuerte que la metralla,
las estrofas de mi Cara al Sol.

« Cara al Sol », canción antigua y nueva,
« Cara al Sol » es el himno mejor,
« Cara al Sol » y es morir peleando,
que la Patria así me lo pidió.


Play solo + sing:

Si en la lucha yo quedar roto,
mi cuerpo se quedara roto,
formaría en la Legión de Honor,
montaría la guardia en los luceros,
formaría junto al mejor.

Montaría la guardia en los luceros,
formaría junto al mejor.
Tap to rate this tab
 
# A B C D E F G H I J K L M N O P Q R S T U V W X Y Z