Song name
# A B C D E F G H I J K L M N O P Q R S T U V W X Y Z

Eternal Doom - I Hate tab

this is from the band eternal doom www.eternaldoom.cjb.net
     intro

     -----------------------------------------------------|
     -----------------------------------------------------|
     -----------------------------------------------------|
     --------------------------------------8-7~-----------|
     ---------------8-7~------0-0-0-0-0--6----------------|
     --0-0-0-0-0--6---------------------------------------| x2
                        x2
verse
     -----------------------------------------------------|
     -----------------------------------------------------|
     -----------------------------------------------------|
     --2--2-----2-----------------------------------------|
     --2--2-7-5-2-----------------------------------------|
     --0--0-5-3-0-----------------------------------------| x8 or 12

chourus             very fast and continuous
     ----------2h-4p-3p2----------------------------------|
     -----------------------------------------------------|
     -----------------------------------------------------|
     --2--------------------------------------------------|
     --2--------------------------------------------------|
     --0--------------------------------------------------|

bridge and rythym under my solo
     -----------------------------------------------------|
     -----------------------------------------------------|
     -----------------------------------------------------|
     --2-2-2-2--2-2----2-7-7-7-7-5------------------------|
     --2-2-2-2--2-2----2-5-5-5-5-3------------------------|
     --0-0-0-0--0-0-0x-0----------------------------------|


solo as for it i make some more up everytime i play it so do wut u want
     ----------------------------------------------------- 1st prt arnd 8xs-|
     -----------------------------------------------------------------------|
     --12h-16p-14p12--16b(19)hold-16b-16b-16--------------------------------|-i no most but make up the rest
     -----------------------------------------------------------------------|
     -----------------------------------------------------------------------|
     -----------------------------------------------------------------------|


outro is intro plus this at end

     --------------8-7------------------------------------|
     -0-0-0-0-0--6-----6h8--------------------------------|
     ----------------------6~h8~b 6h8p6h8p6h8p6h8b--------|
     -----------------------------------------------------|
     -----------------------------------------------------|
     -----------------------------------------------------|
Tap to rate this tab
 
# A B C D E F G H I J K L M N O P Q R S T U V W X Y Z