Song name
# A B C D E F G H I J K L M N O P Q R S T U V W X Y Z

Etta James - Id Rather Go Blind Live tab

by: thearts
*Some parts were somewhat difficult to hear through Etta talking on the live version 
I used for this tab, but basically this is what I heard...

tuning: standard
po = pull off
h  = hammer on
s  = slide

INTRO:
E -------------------------------------------x-------------------------9po7---|
B ----2(po/h)-------2(po/h)-----2(po/h)------2----2-------2(po/h)-------------|
G ---2---------2---2-------2---2-------2---2-2-----2-----2-------2---2--------|
D --2-----------2-2---------2-0---------0-0--0------0---2---------2-2---------|
A -0-------------0-----------2-----------2---2---2---2-0-----------0----------|
E -------------------------------------------x--------------------------------|

E -----------------------|
B -2---------------------|
G -----------------------|
D --2--------------------|
A ---0-------------------|
E ---------0-0-2-5-5s7---|

...then go straight into the chords from there.
*I hope everyone finds this helpful!
Tap to rate this tab
# A B C D E F G H I J K L M N O P Q R S T U V W X Y Z