Song name
# A B C D E F G H I J K L M N O P Q R S T U V W X Y Z

Eurogliders - Heaven Must Be There tab

	     Heaven (Must Be There) - Eurogliders
-------------------------------------------------------------------------------
Tabbed by: Jonathan Sheehan
Email: jonathanshhn@hotmail.com
Tuning:EADGBe (normal tuning)

I tabbed this song from memory so it may not be perfect, it has chime-like noises and 
guitar licks in it that may vary throughout song but follow a similar melody. For the 
I used this style G chord(320033) and not the G chord(320003). Only a slight difference
but sounds more fitting to this song. I've heard it descibed as Gadd9 or G/D I just
called it for simplicity. Another chord C9(032033). The rest are simple open chords.

Intro: (play twice)
e|--------------------------------------------------------------------------|
B|-------------3/5--5--5--7--3----------------------------------------------|
G|--------------------------------------------------------------------------|
D|----4---0-------------------------4---0-4-2-------------------------------|
A|--2---2-------------------------2---2-------------------------------------|
E|--------------------------------------------------------------------------|
Verse:
G       Em            C
Oooooh! Ooh I want to find a better place
G       Em                C                                           
Oooooh! Ooh I'm 
for a better place
(Play G chord then this lick):


e|-7/9-9-9-11-7~------------------------------------------------------------|
B|--------------------------------3/5-5-5-7-3b------------------------------|
G|--------------------------------------------------------------------------|
D|------------------4----0-4-2----------------------------------------------|
A|-----------------2---2----------------------------4---0-4-2---------------|
E|------------------------------------------------2---2---------------------|

Oooooh! Ooh I'm tired of living in the sand
Oooooh! Ooh I'm searching for a better land
Chorus:
D       C9      G                          C9                        D
Heaven, must be there-ere. Well, it's just got to be there-ere. I've never -

C9               G,N.C.
never seen Eden.        I don't wanna live in this place. (Lick same or similar to 
licks)

Oooooh! Ooh I'm always trying to escape
Oooooh! Ooh I never know which road to take
D       C9      G                          C9                        D
Heaven, must be there-ere. Well, it's just got to be there-ere. I've never,
C9               G             C9                  D       C9      G
never seen Eden. I don't wanna live in this place. Heaven, must be there-
                     C9                        D      C9              G
ere. Well, it's just got to be there-ere. I've never, never seen Eden I
            C9                  N.C.
don't wanna live in this place.

Live in this place. (Lick same or similar to previous licks) Live in this place, this place.

Oooooh! Ooh I want to find a better place
Oooooh! Ooh I'm searching for a better place

Heaven, must be there-ere. Well, it's just got to be there-ere. I've never, never seen 
I don't wanna live in this place (don't wanna live). Heaven, must be there-ere. Well, 
just got to be there-ere (must be there-ere). I've never, never seen Eden. I don't wanna
live in this place. Heaven, must be there-ere. Well, it's just got to be there-ere (must
be I've never, never seen Eden. I don't wanna live in this place (fade).


| /  slide up
| \  slide down
| ~  vibrato
===============================================================================
http://www.eurogliders.com/
Tap to rate this tab
# A B C D E F G H I J K L M N O P Q R S T U V W X Y Z