Guitaretab - guitar tabs
Song name
# A B C D E F G H I J K L M N O P Q R S T U V W X Y Z
Home / E / Europe / Carrie tab

Europe - Carrie tab

Carrie Solo

tabed by flipmac.

Here U go!

w~ - whammy bar
d - dipp
p - pull off
h - hammering on
x - left hand mute
m - palm mute
v ~ - vibrato
b - bend
r - relese bend
s - slide

     d
     h         v ~~~~
|--------------17-19-----------------|
|-17----20-------------17---20-------|
|-x----------------------------------|
|-x----------------------------------|
|-x----------------------------------|
|-x----------------------------------|

     h  p                     h  p
|--------------------------------------------|
|-17-20-17---12-15-12---13-12-13-12----------|
|------------------------------------14-12---|
|--------------------------------------------|
|--------------------------------------------|
|--------------------------------------------|
                        v~     h   v~     h  p
-------15--------------------------------------------|
----------15-----------------------------------------|
-14b16--------r14-12----12---------------------------|
---------------------14-----12-14-12---12-14-12-s9---|
-----------------------------------------------------|
-----------------------------------------------------|
[ Tab from: http://www.guitaretab.com/e/europe/6160.html ]
            m m  m  m   v~  v~     h d  p    v~
---------------------------------------------------------|
---------------------------------------------------------|
---------------------------------------------------------|
---------------------------------7-9-12-10-9-------------|
--10--12---------15-14--12-10----------------10----------|
-----------12-15-----------------------------------------|

       h  p                                  h p
------------------------------------------------------|
--------------------------------------17-12-17-12-----|
--11-9-11-9--------14-12-11----14b16------------------|
------------12-10-----------12------------------------|
------------------------------------------------------|
------------------------------------------------------|

              v~~        v~            v~~~~~~
----------------------15-17------17b19r17-------------|
--------17b19r17---17---------------------------------|
--14-12-----------------------------------------------|
------------------------------------------------------|
------------------------------------------------------|
------------------------------------------------------|


     h  p        v~~
--15-17-15-14----------------------------------------|
--------------17-15---slide-down-the-throut----------|
-----------------------------------------------------|
-----------------------------------------------------|
-----------------------------------------------------|
-----------------------------------------------------|

Any questions and so on send to: flipmac@spray.se
Related for Carrie tab
Carrie chords by Europe