Guitaretab - guitar tabs
Song name
# A B C D E F G H I J K L M N O P Q R S T U V W X Y Z

Europe - Seven Doors Hotel tab

 Seven Doors Hotel - Europe 
                Joey Tempest
 Tabed by Tomas Javen (ahvenmies@hotmail.com)


Guitar

Intro
|--3--0--2-----0---------|-0------------------------|--3--0--2-----0---------|--0------0--2--0--2--|
|------------3------1--3--|-----1--3--0--1-----0----|------------3------1--3--|------3-------------|
|--------------------------|------------------2-------|--------------------------|-----------------|
|--------------------------|---------------------------|--------------------------|----------------|
|--------------------------|---------------------------|--------------------------|----------------|
|--------------------------|---------------------------|--------------------------|----------------|


|--3--0--2-----0---------|-0------------------------|--3--0--2-----0---------|--0------0--2--0--2--|
|------------3------1--3--|-----1--3--0--1-----0----|------------3------1--3--|------3-------------|
|--------------------------|------------------2-------|--------------------------|-----------------|
|--------------------------|---------------------------|--------------------------|----------------|
|--------------------------|---------------------------|--------------------------|----------------|
|--------------------------|---------------------------|--------------------------|----------------|


|----------12-------------|-----------------0--------|---------------0----------|-----0-------0-----0--------|
|--------------------------|-----------------12-------|---------------12--------|----------------------------|
|--------------------------|-----------------12-------|---------------12--------|----------------11------11--|
|--------------------------|---------------------------|--------------------------|---------12---------------|
|--------------------------|---------------------------|--------------------------|--------------------------|
|--------------------------|---------------------------|--------------------------|--------------------------|

|--3--0--2-----0---------|-0------------------------|--3--0--2-----0---------|--0------0--2--0--2--|
|------------3------1--3--|-----1--3--0--1-----0----|------------3------1--3--|------3-------------|
|--------------------------|------------------2-------|--------------------------|-----------------|
|--------------------------|---------------------------|--------------------------|----------------|
|--------------------------|---------------------------|--------------------------|----------------|
|--------------------------|---------------------------|--------------------------|----------------|
 verse(didnt find out)
|--------------------------|---------------------------|--------------------------|---------------------------|
|--------------------------|---------------------------|--------------------------|---------------------------|
|--------------------------|---------------------------|--------------------------|---------------------------|
|--------------------------|---------------------------|--------------------------|---------------------------|
|--------------------------|---------------------------|--------------------------|---------------------------|
|--------------------------|---------------------------|--------------------------|---------------------------|


|--------------------------|---------------------------|--------------------------|---------------------------|
|--------------------------|---------------------------|--------------------------|---------------------------|
|--------------------------|---------------------------|--------------------------|---------------------------|
|--------------------------|---------------------------|--------------------------|---------------------------|
|--------------------------|---------------------------|--------------------------|---------------------------|
|--------------------------|---------------------------|--------------------------|---------------------------|

|--------------------------|---------------------------|--------------------------|---------------------------|
|--------------------------|---------------------------|--------------------------|---------------------------|
|--------------------------|---------------------------|--------------------------|---------------------------|
|--------------------------|---------------------------|--------------------------|---------------------------|
|--------------------------|---------------------------|--------------------------|---------------------------|
|--------------------------|---------------------------|--------------------------|---------------------------|
[ Tab from: http://www.guitaretab.com/e/europe/88186.html ]
mellanspel
|--3--0--2-----0---------|-0------------------------|--3--0--2-----0---------|--0------0--2--0--2--|
|------------3------1--3--|-----1--3--0--1-----0----|------------3------1--3--|------3-------------|
|--------------------------|------------------2-------|--------------------------|-----------------|
|--------------------------|---------------------------|--------------------------|----------------|
|--------------------------|---------------------------|--------------------------|----------------|
|--------------------------|---------------------------|--------------------------|----------------|


|----------12-------------|-----------------0--------|---------------0----------|-----0-------0-----0--------|
|--------------------------|-----------------12-------|---------------12--------|----------------------------|
|--------------------------|-----------------12-------|---------------12--------|----------------11------11--|
|--------------------------|---------------------------|--------------------------|---------12---------------|
|--------------------------|---------------------------|--------------------------|--------------------------|
|--------------------------|---------------------------|--------------------------|--------------------------|

solo
|------7--------------------|-------8-7-------7------------|-------10-8--------8--10-12----|-----10----8--|
|--8-----10-7-8-10-7--0-|--10-------8-10-----8----0--|--12--------10-12---------------|-----12-----10-----|
|----------------------------|-------------------------------|-----------------------------------|--------|
|----------------------------|-------------------------------|-----------------------------------|--------|
|----------------------------|-------------------------------|-----------------------------------|--------|
|----------------------------|-------------------------------|-----------------------------------|--------|

|------7--------------------|-------8-7-------7------------|-------10-8--------8--10-12----|-----10----8--|
|--8-----10-7-8-10-7--0-|--10-------8-10-----8----0--|--12--------10-12---------------|-----12-----10-----|
|----------------------------|-------------------------------|-----------------------------------|--------|
|----------------------------|-------------------------------|-----------------------------------|--------|
|----------------------------|-------------------------------|-----------------------------------|--------|
|----------------------------|-------------------------------|-----------------------------------|--------|

|------7--------------------|-------8-7-------7------------|-------10-8--------8--10-12----|-----10----8--|
|--8-----10-7-8-10-7--0-|--10-------8-10-----8----0--|--12--------10-12---------------|-----12-----10-----|
|----------------------------|-------------------------------|-----------------------------------|--------|
|----------------------------|-------------------------------|-----------------------------------|--------|
|----------------------------|-------------------------------|-----------------------------------|--------|
|----------------------------|-------------------------------|-----------------------------------|--------|

|-------15--14-----------|-14---17---15------19---|--20----19---------------|-17-----|
|--------------------------|---------------------------|--------------------------|--|
|--------------------------|---------------------------|--------------------------|--|
|--------------------------|---------------------------|--------------------------|--|
|--------------------------|---------------------------|--------------------------|--|
|--------------------------|---------------------------|--------------------------|--|


|-------15--14-----------|-14---17---15------19---|--20----19---------------|-17-----|
|--------------------------|---------------------------|--------------------------|--|
|--------------------------|---------------------------|--------------------------|--|
|--------------------------|---------------------------|--------------------------|--|
|--------------------------|---------------------------|--------------------------|--|
|--------------------------|---------------------------|--------------------------|--|

|------------------------------------|---------------------------------------|--------------------------------------|----------|
|------------------------------------|---------------------------------------|------10-8--------8-10-12---------|----10--8-----|
|------------------------------------|---------13-12---------12------------|--12-------10-12-------------------|-----12----10--|
|--------16-14----------14---------|----14---------12-14-----12--------|--------------------------------------|----------------|
|--17------------16-17------16----|---------------------------------------|--------------------------------------|-------------|
|---------------------------------14|-------------------------------14-----|--------------------------------------|------------|
|------------------------------------|---------------------------------------|--------------------------------------|----------|
Related for Seven Doors Hotel tab