Song name
# A B C D E F G H I J K L M N O P Q R S T U V W X Y Z

Evan Taubenfeld - The Best Years Of Our Lives tab

Best Years of Our Lives
Evan Taubenfeld


Tabbed by: Me X) aka tOm
Drop D Tuning


[Intro Riff]
|---------------------------------------------------------|
|---------------------------------------------------------|
|---------------------------------------------------------|
|---0----0----0---0----0----0---0----0----0---0----0----0-|
|--5-5--5-5--5---5-5--5-5--5---5-5--5-5--5---5-5--5-5--5--|
|-0----0----0---5----5----5---9----9----9---5----5----5---|

*For those with a little less dexterity you can substitute
 the D-note on the 5th string for a F#/Gb on the 9th fret 
 of the same string when you play the 9th fret on the 6th
 string

[Prechorus]

|---------------------------|
|---------------------------|
|-6-66-6-66-7--4-44-4-44-4--|
|-7-77-7-77-0--5-55-5-55-5--| x2
|-7-77-7-77-x--5-55-5-55-5--|
|-----------9--5-55-5-55-5--|

[chorus]

The chorus is very easy, its just D,G,Bmin, and back to G.
You don't have to use the chords I'm giving you, any variations
to those chords will work =)
  D   G  Bmin
|-2-|---|---|
|-3-|---|---|
|-2-|-4-|-7-|
|-0-|-5-|-0-|
|---|-5-|-x-|
|---|-5-|-9-|

\/I think a second guitar is playing these chords
  D   G   B
|---|---|---|
|---|---|---|
|---|---|---|
|-0-|-5-|-9-|
|-0-|-5-|-9-|
|-0-|-5-|-9-|

[End Chorus]
|------------------|
|------------------|
|------------------|
|-5-55-5-55-5/7-0~-|
|-5-55-5-55-5/7-0~-|
|-5-55-5-55-5/7-0~-|


[Bridge]-Theres several guitars... I tried my best

So it starts on D and hits E when the vocals kick in followed
by G and the ?A? chord.

  D   E   G   A?
|---|---|---|---|
|---|---|---|---|
|---|---|---|-6-|
|-0-|-2-|-5-|-7-|
|-0-|-2-|-5-|-7-|
|-0-|-2-|-5-|---|

|-----|
|-----|
|-----|
|-----|<-repeated a couple times while the intro
|-5---|  is played with the low D as the only bass note
|-0---|
Pm.

[FINALLY REPEAT CHORUS]

Piano Riff

|---------------------------------|
|--10-8-7--10-8-7--10-8-7--10-5-7-|
|---------------------------------|
|---------------------------------|
|---------------------------------|
|-0~~~----5~~~----9~~~----5~~~----|
Tap to rate this tab
 
# A B C D E F G H I J K L M N O P Q R S T U V W X Y Z