Song name
# A B C D E F G H I J K L M N O P Q R S T U V W X Y Z

Evanescence - Sick tab

-------------------------------------------------------------------------------
			     SONG NAME - Band Name
-------------------------------------------------------------------------------
Tabbed by: termin8trkop
Tuning: DADGBE

This song has some tricky parts and rythms to it so listen to the song first.


Legend: p= pull off
        h= hammer on
        .= mute


Intro/verse: (x2)

(Do the first part 4 times then the other part once)

e|-----------------------------|---------------------------------------------|
B|-----------------------------|---------------------------------------------|
G|-----------------------------|---------------------------------------------|
D|-----------------------------|------33333333-------------------------------|
A|---------5-------5------6p5--|---------------3333333-----------------------|
D|--0--00-----000-----00-------|---------------------------------------------|


Pre-chorus:

e|---------------------------------------------------------------------------|
B|---------------------------------------------------------------------------|
G|---------------------------------------------------------------------------|
D|---5--55----8---88---8----0--00-0--0h3----5-55-8--88---33333333333--5------|
A|---5--55----8---88---8----0--00-0--0h3----5-55-8--88---33333333333--5------|
D|---5--55----8---88---8----0--00-0--0h3----5-55-8--88---33333333333--5------|
                ..           ..             ..    ..   ........


Chorus: (x2)

e|----------------------------------------|------------------|---------------|
B|----------------------------------------|------------------|---------------|
G|---7------7---------7-------------------|------------------|---------------|
D|---7--0---7--0--0---7----0----8--8--7---|----3--3---5------|---3--0--------|
A|---5--0---5--0--0---5----0----8--8--7---|----3--3---5------|---3--0--------|
D|------0------0--0--------0----8--8--7---|----3--3---5------|---3--0--------|
   
 play 88 7 the first and third times, then 33 5 the second time, the 3 0 the last time.         


Verse (x2)
Pre-chorus
Chorus(x2)


Bridge:

e|---------------------------------------------------------------------------|
B|---------------------------------------------------------------------------|
G|---------------------------------------------------------------------------|
D|----7-7---5---3--0--0--00---7--8-----3--0--0-------------------------------|
A|----7-7---5---3--0--0--00---7--8-----3--0--0-------------------------------|
D|----7-7---5---3--0--0--00---7--8-----3--0--0-------------------------------|

e|---------------------------------------------------------------------------|
B|---------------------------------------------------------------------------|
G|---------------------------------------------------------------------------|
D|---333333333---7777777777---0000000000-----8--8--8--8-8-7------------------|
A|---333333333---7777777777---0000000000-----8--8--8--8-8-7------------------|
D|---333333333---7777777777---0000000000-----8--8--8--8-8-7------------------|

After the bridge play the all end parts of the chorus once. Then play the chorus 
again. Then play the verse and fade out.
Tap to rate this tab
 
# A B C D E F G H I J K L M N O P Q R S T U V W X Y Z