Guitaretab - guitar tabs
Song name
# A B C D E F G H I J K L M N O P Q R S T U V W X Y Z

Eve 6 - Propaganda tab

Propaganda- Eve 6
CD: Eleventeen
Tabber: Mitchell (
Tuning: Standard (EADGBe)
h= hammer on   V= vibrato

A simple song I figured out. It's off their indy release that I found on napster!
I doubt it'll need corrections.

Intro/Verse: B5  F#5  A5  E5

Chorus: "Another time, another time..." A5  B5  F#5
(Second chorus goes "About being a man, about being a man")
[ Tab from: ]
e --------------------------------------------------------------------------
B -----------------V------------------V------------------V------------------
G ---------------2-3----------------2-3----------------2-3--4-4-4-4-4-4-4-4-
D -4-4--4-4--2h4------4-4--4-4--2h4------4-4--4-4--2h4------4-4-4-4-4-4-4-4-
A -4-4--4-4-----------4-4--4-4-----------4-4--4-4-----------2-2-2-2-2-2-2-2-
E -2-2--2-2-----------2-2--2-2-----------2-2--2-2---------------------------

e -----------------------------------------------------------------------------------
B -----------------------------------------------------------------------------------
G ----------------------------------------------6-5-4-4-4--5-6--------6-5-4-4-4--5-6-
D ----------------------------------------5-5-5-6-5-4-4-4--5-6--5-5-5-6-5-4-4-4--5-6-
A -------4-3-2---3-4---------4-3-2---3-4--5-5-5-4-3-2-2-2--3-4--5-5-5-4-3-2-2-2--3-4-
E -3-3-3---------------3-3-3--------------3-3-3-----------------3-3-3----------------

Those power chords repeat for a while, then ends on a G5.

Chords (low to high) E5: 022xxx   F#5: 244xxx   G5: 355xxx
                     A5: 577xxx   B5: x244xx   C5: x355xx   C#5: x466xx

Tab originally from:
Related for Propaganda tab