Song name
# A B C D E F G H I J K L M N O P Q R S T U V W X Y Z

Eve 6 - Saturday Night tab

SATURDAY NIGHT - eve 6
"EVE 6"
Tuning:Standard (EADGBe)

INTRO:
    E  D  A       E  D  E
e|-------------|-----------|
B|-------------|-----------|
G|--9--7-------|--9--7--9--|
D|--9--7--7(x3)|--9--7--9--|
A|--7--5--7----|--7--5--7--|
E|--------5----|-----------|

VERSE:
    E  D  A       E  D
e|-------------|--------|
B|-------------|--------|
G|--9--7-------|--9--7--|
D|--9--7--7(x3)|--9--7--|
A|--7--5--7----|--7--5--|
E|--------5----|--------|

CHORUS:
    E  A  G
e|-----------|
B|-----------|
G|-----------|
D|--2--7--5--|
A|--2--7--5--|
E|--0--5--3--|

BRIDGE:
    D  A  E       D  A  A# F  D  A  E
e|-------------|-----------------------|
B|-------------|-----------------------|
G|-------------|-----------------------|
D|--12-7--2(x2)|--12-7--8--3--12-7--2--|
A|--12-7--2----|--12-7--8--3--12-7--2--|
E|--10-5--0----|--10-5--6--1--10-5--0--|

LISTEN TO GET THE TIMING AND STUFF...
Tap to rate this tab
 
# A B C D E F G H I J K L M N O P Q R S T U V W X Y Z