Song name
# A B C D E F G H I J K L M N O P Q R S T U V W X Y Z

Eve 6 - Tongue Tied tab

TONGUE TIED - eve 6
"EVE 6"
Tuning:Standard (EADGBe)

VERSE:
    B  D  B  E        F# A
e|-----------------|--------|
B|-----------------|--------|
G|-----7-----9-----|--------|
D|--9--7--9--9(x4)-|--4--7--|
A|--9--5--9--7-----|--4--7--|
E|--7-----7--------|--2--5--|

CHORUS:
    B  E  A  E
e|--------------|
B|--------------|
G|--4--9--------|
D|--4--9--7--2--|
A|--2--7--7--2--|
E|--------5--0--|

POST-CHORUS:
    B  E  A  E  B  E  A
e|-----------------------|
B|-----------------------|
G|--4--9--------4--9-----|
D|--4--9--7--2--4--9--7--|
A|--2--7--7--2--2--7--7--|
E|--------5--0--------5--|

BRIDGE:
    B     D  A  D  A  D  A  E       B  D  E       B  D  E  F#
e|-----|-------------------------|-------------|---------------|
B|-----|-------------------------|-------------|---------------|
G|-----|--7-----7-----7----------|-----7--9----|-----7--9--11--|
D|--9--|--7--7--7--7--7--7--2(x2)|--9--7--9(x3)|--9--7--9--11--|
A|--9--|--5--7--5--7--5--7--2----|--9--5--7----|--9--5--7---9--|
E|--7--|-----5-----5-----5--0----|--7----------|--7------------|
Tap to rate this tab
 
# A B C D E F G H I J K L M N O P Q R S T U V W X Y Z