Song name
# A B C D E F G H I J K L M N O P Q R S T U V W X Y Z

Eve - Let Me Blow Your Mind tab

This is MY VERY FIRST TAB!!! But it is unoriginal.  It is simply a
correction of the other tab on this site...

This is a kick ass song.
Gwen Stefani & Eve... Pure Genius...


e|-------16-18-16------|---------------------|-------16-18-16------|
B|-16-19----------19-16|-16------------------|-16-19----------19-16|
G|---------------------|---------------------|---------------------|
D|---------------------|---------------------|---------------------|
A|---------------------|---------------------|---------------------|
E|---------------------|---------------------|---------------------|

e|---------------------|-------16-18-16----16|-16------------------|
B|16-------------------|-16-19----------19---|---------------------|
G|---------------------|---------------------|---------------------|
D|---------------------|---------------------|---------------------|
A|---------------------|---------------------|---------------------|
E|---------------------|---------------------|---------------------|

e|-------16-18-16------|---------------------|---------------------|
B|-16-19----------19-16|-16------------------|---------------------|
G|---------------------|---------------------|---------------------|
D|---------------------|---------------------|---------------------|
A|---------------------|---------------------|---------------------|
E|---------------------|---------------------|---------------------|

Repeat as necessary.  Have fun!
Tap to rate this tab
 
# A B C D E F G H I J K L M N O P Q R S T U V W X Y Z