Guitaretab - guitar tabs
Song name
# A B C D E F G H I J K L M N O P Q R S T U V W X Y Z

Evildead - Future Shock tab

By the great band EVILDEAD, love them.
ok, lets see, i can tell you that this isnt right, maybe some parts.
Im having trouble getting it right, so, in just going to tab out the parts that i
have figured out. And they might be wrong.

tuning: E Standard

Both guitars, lead guitar let ring the rythm guitar starts on next riff.
|-----------|
|-----------|
|-----------|
|-----------|
|--5-4-3-2--|
|--3-2-1-0--|
   . . .

|-----------------------------------| 4 times alone, 5th time lead
|-----------------------------------| guitar kicks in and plays this too.
|------------------------------9/8--| they play this together 4 times.
|------------------------------9/8--|
|------------------9-----------7/6--|
|--0-0-0-0-0-6-0-7---0-0-0-0-0------|
   . . . .     .     . . . . .

This part im not so sure of.

Rythm Guitar
|---------------------------------------| \
|---------------------------------------|   \
|---------------------------------------|     \
|------------------------9-8-7-----7/6--|       \
|------------------9---7-------9-8-7/6--|         \
|--0-0-0-0-0-6-0-7---0-------------5/4--|           \
   . . . .     .     .                                \
                                                        \ 
Lead Guitar                                                X4  
|---------------------------------------------|          /
|-------------------------12-11-10------------|        /
|------------------11---9----------11-10-9/8--|      /
|------------9---9-----------------------9/8--|    /
|----------7-----------------------------7/6--|  /
|--0-0-0-0-----0------0-----------------------|/
   . . . .     .      .
[ Tab from: http://www.guitaretab.com/e/evildead/172984.html ]
|-------------------------------------------------------------------|
|-------------------------------------------------------------------|
|-------------------------------------------------------------------|
|-------------------------------------------------------------------| X5
|-------------------------------------------------------------------|
|--0-0-0-0-0-0-0-0-0-0-0-0-0-0-0-0-3-2-1-0-5-4-3-2-3-2-4-2-5-4-3-0--|
   . . . . . . . . . . . . . . . . . . . . . . . . . . . . . . . .

On this riff they variate with triplets, they do it kind of random, 
you have to figure that out yourself.
|---------------------------------------------------------------------|
|---------------------------------------------------------------------|
|---------------------------------------------------------------------|
|---------------------------------------------------------------------| X4
|--2-2-2-2-2-2-2-7-6-2-2-2-2-2-2-6-5-2-2-2-2-2-2-5-4-2-2-4-3-2-2-3-2--|
|--0-0-0-0-0-0-0-5-4-0-0-0-0-0-0-4-3-0-0-0-0-0-0-3-2-0-0-2-1-0-0-1-0--|
   . . . . . . .     . . . . . .     . . . . . .     . .     . .   

|---------------|
|---------------|Before the solo.
|---------------|
|--4--4--4-4-4--|
|--4--4--4-4-4--|
|--2--2--2-2-2--|

|------------------------|
|------------------------|
|------------------------|
|--4------4---4---4---4--|
|--4------4---4---4---4--|
|--2-000002-002-002-002--|
     .....  ..  ..  ..
I dont know rythen for solo, or the solo.

Heavy part

|---------------------------|
|---------------------------|
|---------------------------|
|--------1/2-1-------1/2-1--|
|--2-2-2-2/3-2-2-2-2-2/3-2--|
|--0-0-0-------0-0-0--------|
   . . .       . . .

Ok, so, I've said it before. This tab isnt completly accurate, but i put it out
how I play it. I'v serched for the tab for this song, but didnt find anything. So
im the first one (I know) :)

Nicke.pee@hotmail.com <----- my email. Its my second tab so, be nice with the comments.

http://en.wikipedia.org/wiki/Evildead