Song name
# A B C D E F G H I J K L M N O P Q R S T U V W X Y Z

Evolution - Killer Instinct tab

this song is very repedative but sounds good i'm trying to find the lyrics so i'll post them later

intro x2
e ---------------------------------------------------------------------------------------------|
b ---------------------------------------------------------------------------------------------|
g ---------------------------------------------------------------------------------------------|
d ---------------------------------------------------------------------------------------------|
a --9-9-9-9-9-9-9-9--5-5-5-5-5-5-5-5--7-7-7-7-7-7-7-7--3-3-3-3-3-3-3-3-------------------------|
e --7-7-7-7-7-7-7-7--3-3-3-3-3-3-3-3--5-5-5-5-5-5-5-5--1-1-1-1-1-1-1-1-------------------------|

verse 1 x5
e-------------------------------------------------|
b-------------------------------------------------|
g-------------------------------------------------|
d-------------------------------------------------|
a--9-9-9-9--5-5-5-5--7-7-7-7--3-3-3-3-------------|
e--7-7-7-7--3-3-3-3--5-5-5-5--1-1-1-1-------------|

chorus x3

e---------------------------------------------|
b---------------------------------------------|
g---------------------------------------------|
d---------------------------------------------|
a--------9---------5--------7------------3----|
e--7-7-7----3-3-3---5-5-5------1-1-1----------|

Play the intro again twice than the verse and then play

ending x2
e
b
g
d
a--9-9--5-5--7-7--3-3-|
e--7-7--3-3--5-5--1-1-|

email me at blemin@yahoo.com.au for more info
Tap to rate this tab
# A B C D E F G H I J K L M N O P Q R S T U V W X Y Z