Song name
# A B C D E F G H I J K L M N O P Q R S T U V W X Y Z

Ewa Farna - Cicho tab

Ewa Farna - Chicho        



   [0.33]
D-------------------------------------------------------------------------------------------------|
A-------------------------------------------------------------------------------------------------|
F------------------------------------------------------------3-3-3-3-3-3-3-3----------------------|
C---1-1----1-1----1------5-5-5-5-5-5-5-5---1-1-1-1-1-1-1-1---3-3-3-3-3-3-3-3---3-3-3-3-3-3-3-3-3--|
G---1-1----1-1----1------5-5-5-5-5-5-5-5---1-1-1-1-1-1-1-1---1-1-1-1-1-3-1-1---0-0-0-0-0-0-0-0-0--|
C-------------------------------------------------------------------------------------------------|

                                  [0.56]
D----------------------------|--------------------------------------------|
A----------------------------|---------------------------------------3----|
F----------------------------|----3-----3------3------3------3---5--------| 6x
C---1-1----1-1----1-1----1---|-------5-----5-------5-----5----------------|
G---1-1----1-1----1-1----1---|--------------------------------------------|
C----------------------------|--------------------------------------------|

   [1.23]
D-------------------------------------------------------------------------------------------------|
A-------------------------------------------------------------------------------------------------|
F------------------------------------------------------------3-3-3-3-3-3-3-3----------------------|
C---1-1----1-1----1-1----5-5-5-5-5-5-5-5---1-1-1-1-1-1-1-1---3-3-3-3-3-3-3-3---3-3-3-3-3-3-3-3-3--|
G---1-1----1-1----1-1----5-5-5-5-5-5-5-5---1-1-1-1-1-1-1-1---1-1-1-1-1-3-1-1---0-0-0-0-0-0-0-0-0--|
C-------------------------------------------------------------------------------------------------|

                                  
D---------------------------------------------------------------------|
A---------------------------------------------------------------------|
F---------------------------------------------------------------------| 
C---1-1----1-1----1-1----1--1-----------------------------------------|
G---1-1----1-1----1-1----1--1----5-5-5-5-5-5-5-5---3-3-3-3-3-3-3-3----|
C--------------------------------5-5-5-5-5-5-5-5---3-3-3-3-3-3-3-3----|

    [1.46]
D----------------------------------------------------------------------------|
A----------------------------------------------------------------------------|
F---------------------------------------3-3-3-3-3-3-3-3----------------------|
C---5-5-5-5-5-5-5-5---1-1-1-1-1-1-1-1---3-3-3-3-3-3-3-3---3-3-3-3-3-3-3-3-3--|
G---5-5-5-5-5-5-5-5---1-1-1-1-1-1-1-1---1-1-1-1-1-3-1-1---0-0-0-0-0-0-0-0-0--|
C----------------------------------------------------------------------------|

                                  
D------------------------------------------------------------------------|
A------------------------------------------------------------------------|
F------------------------------------------------------------------------| 
C---1-1----1-1----1-1----1--1-----5-5-5-5-5-5-5-5---3-3-3-3-3-3-3-3------|
G---1-1----1-1----1-1----1--1-----5-5-5-5-5-5-5-5---3-3-3-3-3-3-3-3------|
C------------------------------------------------------------------------|

    [2.04]
D------------------------------------------------------------------------|
A------------------------------------------------------------------------|
F------------------------------------------------------------------------| 
C---1-1-x-1-x-x-1-x-1-1-x-1-x-x-1-x---3-3-x-3-x-x-3-x---1--1-------------|
G---1-1-x-1-x-x-1-x-1-1-x-1-x-x-1-x---3-3-x-3-x-x-3-x---1--1-------------|
C------------------------------------------------------------------------|


                      [2.13] - [2.26]   CISZA



    [2.26]
D--------------------------------------------------------------------------------|
A--------------------------------------------------------------------------------|
F-------------------------------------------3-3-3-3-3-3-3-3----------------------|
C--x-x--5-5-5-5-5-5-5-5---1-1-1-1-1-1-1-1---3-3-3-3-3-3-3-3---3-3-3-3-3-3-3-3-3--|
G--x-x--5-5-5-5-5-5-5-5---1-1-1-1-1-1-1-1---1-1-1-1-1-3-1-1---0-0-0-0-0-0-0-0-0--|
C--------------------------------------------------------------------------------|


D------------------------------------------------------------------------|
A------------------------------------------------------------------------|
F------------------------------------------------------------------------| 
C---1-1----1-1----1-1----1--1-----5-5-5-5-5-5-5-5---3-3-3-3-3-3-3-3------|
G---1-1----1-1----1-1----1--1-----5-5-5-5-5-5-5-5---3-3-3-3-3-3-3-3------|
C------------------------------------------------------------------------|


D----------------------------------------------------------------------------|
A----------------------------------------------------------------------------|
F---------------------------------------3-3-3-3-3-3-3-3----------------------|
C---5-5-5-5-5-5-5-5---1-1-1-1-1-1-1-1---3-3-3-3-3-3-3-3---3-3-3-3-3-3-3-3-3--|
G---5-5-5-5-5-5-5-5---1-1-1-1-1-1-1-1---1-1-1-1-1-3-1-1---0-0-0-0-0-0-0-0-0--|
C----------------------------------------------------------------------------|


D-------------------------------|
A-------------------------------|
F-------------------------------| 
C---1-1----1-1----1-1----1--1---|
G---1-1----1-1----1-1----1--1---|
C-------------------------------|

    [2.59]
D----------------------------------------------------------------------------|
A----------------------------------------------------------------------------|
F---------------------------------------3-3-3-3-3-3-3-3----------------------|
C---5-5-5-5-5-5-5-5---1-1-1-1-1-1-1-1---3-3-3-3-3-3-3-3---3-3-3-3-3-3-3-3-3--|
G---5-5-5-5-5-5-5-5---1-1-1-1-1-1-1-1---1-1-1-1-1-3-1-1---0-0-0-0-0-0-0-0-0--|
C----------------------------------------------------------------------------|


D----------------------------------------------------------------------------|
A----------------------------------------------------------------------------|
F----------------------------------------------------------------------------|
C---1-1-1-1-1-1-1-1-1-1-1-1-1-1-1-1---5-5-5-5-5-5-5-5---3-3-3-3-3-3-3-3-3----|
G---1-1-1-1-1-1-1-1-1-1-1-1-1-1-1-1---5-5-5-5-5-5-5-5---3-3-3-3-3-3-3-3-3----|
C----------------------------------------------------------------------------|

    [3.17]
D------------------------------------------------------------------------|
A------------------------------------------------------------------------|
F------------------------------------------------------------------------| 
C---1-1-x-1-x-x-1-x-1-1-x-1-x-x-1-x---3-3-x-3-x-x-3-x---1--1-------------|
G---1-1-x-1-x-x-1-x-1-1-x-1-x-x-1-x---3-3-x-3-x-x-3-x---1--1-------------|
C------------------------------------------------------------------------|



                     The End =)


Tap to rate this tab
 
# A B C D E F G H I J K L M N O P Q R S T U V W X Y Z